PrimaNota.ru - самый крупный в мире бесплатный архив песенных текстов, аккордов, табулатур и нот


Search The City - The Streetlight Diaries - таба, бас-таба, видео

Регистрация Запомнить меня
Войти через:  Facebook Google Twitter Vk Yandex Mail.ru

Search The City - The Streetlight Diaries - таба, бас-таба, видео

Печатать
Просмотров: 119
	The Streetlight Diaries

Song: The Steetlight Diaries
Artist: Search the City
Album: A Fire So Big The Heavens Can See It
Year: 2008
Genre: Rock
Tuning: Drop D
InfO:
  / Pull On/Off
  ~ Waver Note
  ^ Bend
  << Crescendo (Volume Knob 0-10)
  . Palm Mute

Some parts were hard to hear but otherwise it's pretty accurate.

	Intro:

e|-------11------108108108-----11------10810810-|
B|------9---9-989-------------9---9-989---------|
G|--8/10------------------8/10------------------|
D|----------------------------------------------|
A|----------------------------------------------|
D|----------------------------------------------|
 |
e|-------11------108108108-----11------10810810-|
B|------9---9-989-------------9---9-989---------|
G|--8/10------------------8/10------------------|
D|----------------------------------------------|
A|----------------------------------------------|
D|----------------------------------------------|


e|------------------------------------------------|
B|---------98----------------------98---------999-|
G|--8-10108--108-1010-81010---10108--108-1010-----|
D|-------------------------10---------------------|
A|------------------------------------------------|
D|------------------------------------------------|
 |
e|------------------------------------------------|
B|---------98----------------------98---------999-|
G|--8-10108--108-1010-81010---10108--108-1010-----|
D|-------------------------10---------------------|
A|------------------------------------------------|
D|------------------------------------------------|


e|-------11------108108108-----11------10810810-|
B|------9---9-989-------------9---9-989---------|
G|--8-10------------------8/10------------------|
D|----------------------------------------------|
A|----------------------------------------------|
D|----------------------------------------------|


	Verse 1:

e|------------------------------------------------------------|
B|----------99--88-----------------------99--88---------------|
G|------88----------88---------------88----------88-----------|
D|--66----66--66--66--66--66-6-6---66--66--66--66--66--66-6-6-|
A|----66----------------68-4-4-4-66------------------68-4-4-4-|
D|------------------------------------------------------------|
 |  .......................      .......................      |
 |
e|------------------------------------------------------------|
B|----------99--88-----------------------99--88---------------|
G|------88----------88---------------88----------88-----------|
D|--66----66--66--66--66--66-6-6---66--66--66--66--66--66-6-6-|
A|----66----------------68-4-4-4-66------------------68-4-4-4-|
D|------------------------------------------------------------|
 |  .......................      .......................      |

e|----------------------------------|
B|--9--------------9----------------|
G|----8--------------8-----------6--|
D|------108-6~~686-----108-6~~6864--|
A|----------------------------------|
D|----------------------------------|


	Chorus:

e|------------------------------------------------|
B|---------98----------------------98---------999-|
G|--8-10108--108-1010-81010---10108--108-1010-----|
D|-------------------------10---------------------|
A|------------------------------------------------|
D|------------------------------------------------|
 |
e|------------------------------------------------|
B|---------98----------------------98---------999-|
G|--8-10108--108-1010-81010---10108--108-1010-----|
D|-------------------------10---------------------|
A|------------------------------------------------|
D|------------------------------------------------|

 Guitar 1:
 e|---------------------------------------------------|
 B|--------------------1311--------------------1311---|
 G|--12-1313-1312-1313-----1312-1313-1312-1313-----13-|
 D|---------------------------------------------------|
 A|---------------------------------------------------|
 D|---------------------------------------------------|
  |
 e|----------------------------------------------------------------|
 B|--------------------1311--------------------13-11-------13------|
 G|--12-1313-1312-1313-----1312-1313-1312-1313-------13-12-13------|
 D|----------------------------------------------------------------|
 A|----------------------------------------------------------------|
  |								      \   Either part
 Guitar 2:							      /	  can be played
 e|--------------------------------|					  (1 or 2)
 B|--------------------------------|
 G|-------------53-------------53--|
 D|--5-66-65-66---6-5-66-65-66---6-|
 A|--------------------------------|
 D|--------------------------------|
  |
 e|-------------------------------------------|
 B|-------------------------------------------|
 G|-------------53-------------5-3------------|
 D|--5-66-65-66---6-5-66-65-66-----6-5-6------|
 A|------------------------------------4------|
 D|-------------------------------------------|


	Verse 2:

No Guitar for a bit, just bass, I couldn't figure out the lead for the next two 
bars but the rhythm goes:
e|-------------------------------------|
B|-------------------------------------|
G|-------------------------------------|
D|--<<6~~66-----------------66---6-6-6-|
A|--<<4~~44-----------------44---4-4-4-|
D|-------------------------------------|
 |                          ..
 |
e|-------------------------------|
B|-------------------------------|
G|-------------------------------|
D|--------------------66---6-6-6-|
A|--------------------44---4-4-4-|
D|-------------------------------|
 |                    ..

e|-------11------108108108-----11------10810810-|
B|------9---9-989-------------9---9-989---------|
G|--8-10------------------8/10------------------|
D|----------------------------------------------|
A|----------------------------------------------|
D|----------------------------------------------|

	Chorus:

e|------------------------------------------------|
B|---------98----------------------98---------999-|
G|--8-10108--108-1010-81010---10108--108-1010-----|
D|-------------------------10---------------------|
A|------------------------------------------------|
D|------------------------------------------------|
 |
e|------------------------------------------------|
B|---------98----------------------98---------999-|
G|--8-10108--108-1010-81010---10108--108-1010-----|
D|-------------------------10---------------------|
A|------------------------------------------------|
D|------------------------------------------------|

 Guitar 1:
 e|---------------------------------------------------|
 B|--------------------1311--------------------1311---|
 G|--12-1313-1312-1313-----1312-1313-1312-1313-----13-|
 D|---------------------------------------------------|
 A|---------------------------------------------------|
 D|---------------------------------------------------|
  |
 e|--------------------------------------------------------------|
 B|--------------------1311--------------------13-11-------------|
 G|--12-1313-1312-1313-----1312-1313-1312-1313-------13-12-------|
 D|--------------------------------------------------------------|
 A|--------------------------------------------------------------|
  |								      \   Either part
 Guitar 2:							      /	  can be played
 e|--------------------------------|					  (1 or 2)
 B|--------------------------------|
 G|-------------53-------------53--|
 D|--5-66-65-66---6-5-66-65-66---6-|
 A|--------------------------------|
 D|--------------------------------|
  |
 e|-------------------------------------------|
 B|-------------------------------------------|
 G|-------------53-------------5-3------------|
 D|--5-66-65-66---6-5-66-65-66-----6-5-8------|
 A|------------------------------------6------|
 D|-------------------------------------------|


Some quiet background guitar for a bit, then lead kicks in:

	Bridge:

e|------------------------------------------|
B|-----------------9-8------------9-8-------|
G|--8-10-81010-8108---108-10-8108----108108-|
D|------------------------------------------|
A|------------------------------------------|
D|------------------------------------------|
 |
e|------------------------------------|
B|------------------------------------|
G|------------------------------------|
D|--1-----------------1---------------|
A|--1-3333-3333-3333--1-3333-3333-6---|
D|--1-3333-3333-3333--1-3333-3333-6---|
 |    .... .... ....    .... ....     |


	Chorus:

e|------------------------------------------------|
B|---------98----------------------98---------999-|
G|--8-10108--108-1010-81010---10108--108-1010-----|
D|-------------------------10---------------------|
A|------------------------------------------------|
D|------------------------------------------------|
 |
e|------------------------------------------------|
B|---------98----------------------98---------999-|
G|--8-10108--108-1010-81010---10108--108-1010-----|
D|-------------------------10---------------------|
A|------------------------------------------------|
D|------------------------------------------------|

 Guitar 1:
 e|---------------------------------------------------|
 B|--------------------1311--------------------1311---|
 G|--12-1313-1312-1313-----1312-1313-1312-1313-----13-|
 D|---------------------------------------------------|
 A|---------------------------------------------------|
 D|---------------------------------------------------|
  |
 e|--------------------------------------------------------------|
 B|--------------------1311--------------------13-11-------------|
 G|--12-1313-1312-1313-----1312-1313-1312-1313-------13-12-------|
 D|--------------------------------------------------------------|
 A|--------------------------------------------------------------|
  |								      \   Either part
 Guitar 2:							      /	  can be played
 e|--------------------------------|					  (1 or 2)
 B|--------------------------------|
 G|-------------53-------------53--|
 D|--5-66-65-66---6-5-66-65-66---6-|
 A|--------------------------------|
 D|--------------------------------|
  |
 e|-------------------------------------------|
 B|-------------------------------------------|
 G|-------------53-------------5-3------------|
 D|--5-66-65-66---6-5-66-65-66-----6-5-8------|
 A|------------------------------------6------|
 D|-------------------------------------------|


	Outro:
e|-------11------108108108-----11------10810810-|
B|------9---9-989-------------9---9-989---------|
G|--8/10------------------8/10------------------|
D|----------------------------------------------|
A|----------------------------------------------|
D|----------------------------------------------|
 |
e|-------11------108108108-----11------108108-------|
B|------9---9-989-------------9---9-989------99-----|
G|--8/10------------------8/10----------------------|
D|--------------------------------------------------|
A|--------------------------------------------------|
D|--------------------------------------------------|

Добавлено: 07.03.2012
Другие материалы по этой песне:
  • Аккорды и текст

Страница создана 07.03.2012
http://primanota.ru/search-the-city/the-streetlight-diaries-chords.htm
Привет, Гость.
Предлагаем пройти революционный курс по гитаре.
Подарок от PrimaNota.Ru, забирай!