PrimaNota.ru - самый крупный в мире бесплатный архив песенных текстов, аккордов, табулатур и нот


Search The City - Bigger Scares Make Better Stories - таба, видео

Регистрация Запомнить меня
Войти через:  Facebook Google Twitter Vk Yandex Mail.ru

Search The City - Bigger Scares Make Better Stories - таба, видео

Печатать
Просмотров: 100
“Bigger Scars Make Better Stories” by Search The City

Tabbed by Matthew J Panebianco

Search the City plays in DROP C# (C#G#C#F#A#D#)

if anyone has anthing they wish to have added to the tablature (better chord notation, 
riffs, etc)
to help improve it, email me at guiltyspark1992@hotmail.com, and have fun rockin on

() - optional note or technique
> - hold note
^ - Bend string

intro

e|------------------3-2-0---5-3-2-0---------------------------------3-2-0---|
B|-5-7-5-5-7-5----------------------3-0-----7-5>-5-7-5--5-7-5---------------|
G|------7-----------------------------------------------7-------------------|
D|-------------5-5-----------------------0-0---------------------5-5--------|
A|-------------5-5-----------------------0-0---------------------5-5--------|
E|-------------5-5-----------------------0-0---------------------5-5--------|

e|5-3-2-0-------------------------------------------------------------------|
B|--------3-0------5-7---5-7------------------------------------------------|
G|---------------------7----------------------------------------------------|
D|------------0-0-----------------------------------------------------------|
A|------------0-0-----------------------------------------------------------|
E|------------0-0-----------------------------------------------------------|

Verse

e|---------------------------------------------------------------------------|
B|---------------------------------------------------------------------------|
G|---------------------------------------------------------------------------|
D|-5-5555--77777--7-9999—(12)1212121212---5-5555-77777-7-9999-(12)1212121212-|
A|-5-5555--77777--7-9999—(12)1212121212---5-5555-77777-7-9999-(12)1212121212-|
E|-5-5555--77777--7-9999—(12)1212121212---5-5555-77777-7-9999-(12)1212121212-|

e|--5-77-7-7-7-7-755-77-7-7-7-7-7-555-77-7-7-7-7-7-55-77-7-7-7-7-555--------|
B|--------------------------------------------------------------------------|
G|--------------------------------------------------------------------------|
D|--------------------------------------------------------------------------|
A|--------------------------------------------------------------------------|
E|--------------------------------------------------------------------------|

Chorus

e|----------------------------------55-----------------------------5-555555-|
B|-7-5-------5-----555-7-5-------55-------555--7-5-------5-----555----------|
G|-----7-4-7---6-7---------7-4-7-------77----------7-4-7---6-7--------------|
D|--------------------------------------------------------------------------|
A|--------------------------------------------------------------------------|
E|--------------------------------------------------------------------------|

e|-9^^-10-9-----Verse 2------------------------------------------------------|
B|---------------10-7-----------7-----10-7----------------10-7-----------7---|
G|------------7-7-----9-7-9-7-9--7-7------9-7-9-7-9-7-77-------9-7-9-7-9---7-|
D|---------------------------------------------------------------------------|
A|---------------------------------------------------------------------------|
E|---------------------------------------------------------------------------|


e|--------------------------------------------------------------------|
B|-----10-7----------------10-7-----------7-----10-7------------------|
G|-7-7------9-7-9-7-9-7-77------9-7-9-7-9---7-7-------9-7-9-7-9-7-----|
D|--------------------------------------------------------------------|
A|--------------------------------------------------------------------|
E|--------------------------------------------------------------------|

e|-------------------------------------------------------------------------|
B|---7-7-777-8-77-7-7-7-8--5-5-77-7-7-7-8-55-77-7-7-7-8-55-7-7-7-7-7-7-5---|
G|---x-x-xxx-x-xx-x-x-x-x--x-x-xx-x-x-x-x-xx-xx-x-x-x-x-xx-x-x-x-x-x-x-x---|
D|---4-4-444-5-44-4-4-4-5--2-2-44-4-4-4-5-22-44-4-4-4-5-22-4-4-4-4-4-4-2---|
A|-------------------------------------------------------------------------|
E|-------------------------------------------------------------------------|


Chorus

e|----------------------------------55-----------------------------5-555555-|
B|-7-5-------5-----555-7-5-------55-------555--7-5-------5-----555----------|
G|-----7-4-7---6-7---------7-4-7-------77----------7-4-7---6-7--------------|
D|--------------------------------------------------------------------------|
A|--------------------------------------------------------------------------|
E|--------------------------------------------------------------------------|

e|--9^^-10-9—9-10-7-0-2-3-0-3-5-0-3-2>--9-10-9-7-0-2-3-0-3-5-13-14-----|
B|---------------------------------------------------------------------|
G|---------------------------------------------------------------------|
D|---------------------------------------------------------------------|
A|---------------------------------------------------------------------|
E|---------------------------------------------------------------------|

e|----------------------------------------------------------------------|
B|--7-77-10-10----------------------------------------------------------|
G|--x-xx--x--x--666-7---------------------------------------------------|
D|--4-44--7--7--xxx-x---------------------------------------------------|
A|--------------444-5>--------------------------------------------------|
E|--------------000-0>--------------------------------------------------|


Bridge


e|---------------------------------------------------------------------------|
B|---3-7777-22220-3-7777--2223-3-7777-22220-77-55-88-77----------------------|
G|------------------------------------------xx-xx-xx-xx----------------------|
D|------------------------------------------44-22-55-44--5-5-------55--------|
A|-------------------------------------------------------5-5-45420-55-45420--|
E|-------------------------------------------------------5-5-------55--------|


e|---------------------------------------------------------------------------|
B|---------------------------------------------------------------------------|
G|---------------------------------------------------------------------------|
D|-7-77-77-4-44-44---5-5------------------7-77-77--11-(11)11-(11)12\---------|
A|-7-77-77-4-44-44---5-5-45420-5-5-45420--7-77-77--11-(11)11-(11)12\---------|
E|-7-77-77-4-44-44---5-5------------------7-77-77--11-(11)11-(11)12\---------|

e|------------------------------------9-10-9-7-0-2-3-0-3-5-0-12-14-----------|
B|--3-33-3-3-3-3-3333-3-3-3-3-3-3-333----------------------------------------|
G|---------------------------------------------------------------------------|
D|---------------------------------------------------------------------------|
A|---------------------------------------------------------------------------|
E|---------------------------------------------------------------------------|
    * ** * * * * **** * * * * * * ***
   PM


e|-------------------------------------------------------------------|
B|-------------------------------------------------------------------|
G|-------------------------------------------------------------------|
D|---5--5555555555555------------------------------------------------|
A|---5--5555555555555------------------------------------------------|
E|---5--5555555555555------------------------------------------------|
        *************
        Slowly Unmute

CHORUS

Ending

e|--------------------------------------------------------------------------|
B|--------------------------------------------------------------------------|
G|----------------------------------77777777-11111111-6666^-----------------|
D|-777777777777777-9999999999999999-xxxxxxxx-x-x-x-x--xxxx------------------|
A|-777777777777777-9999999999999999-55555555-9-9-9-9--4444^-----------------|
E|-777777777777777-9999999999999999-00000000-0-0-0-0--0000------------------|


Bend the hell out of that
Добавлено: 25.07.2012
Другие материалы по этой песне:
  • Аккорды и текст

Страница создана 25.07.2012
http://primanota.ru/search-the-city/bigger-scares-make-better-stories-chords.htm
Привет, Гость.
Предлагаем пройти революционный курс по гитаре.
Подарок от PrimaNota.Ru, забирай!