PrimaNota.ru - самый крупный в мире бесплатный архив песенных текстов, аккордов, табулатур и нот


Sean Price - Rising To The Top Featuring Agallah Bazaar Royale - бас-таба, видео

Регистрация Запомнить меня
Войти через:  Facebook Google Twitter Vk Yandex Mail.ru

Sean Price - Rising To The Top Featuring Agallah Bazaar Royale - бас-таба, видео

Печатать
Просмотров: 57
Уроки эстрадного вокала в Санкт-Петербурге
-------------------------------------------------------------------------------
       Rising To The Top Featuring Agallah & Bazaar Royale - Sean Price
-------------------------------------------------------------------------------
Tabbed by: "ASAPROACH"
E-mail: nabbehh@gmail.com
I noticed no one had tabbed this bassline, and I really liked it so I decided
to  

NOTE:  The notes may be a little bit out of tune do to the fact that some notes
are in between the actual notes such as being in between E Flat and D.  

Please give constructive criticism.
 

Tuning:  Standard
Riff (Variation one) Play this twice through
G|---------------------------------------------------------------------------|
D|---------------------------------------------------------------------------|
A|---------------------------------------------------------------------------|
E|11--13--14--16--18-18--18-18--18--18--18-----------------------------------|

G|---------------------------------------------------------------------------|
D|---------------------------------------------------------------------------|
A|---------------------------------------------------------------------------|
E|9-11-9h11--9h11--9h11--9h11-8-9h11-119h11--9h11----------------------------|


Riff (Variation 2)Play this through 4 times
G|---------------------------------------------------------------------------|
D|---------------------------------------------------------------------------|
A|---------------------------------------------------------------------------|
E|11--13--14--16--18-18--18-18--18-18--18---18-14-13-------------------------|

G|---------------------------------------------------------------------------|
D|---------------------------------------------------------------------------|
A|---------------------------------------------------------------------------|
E|11-11---11-11-----11-11--11------------------------------------------------|

1:12 Riff(Variation 1)
1:33 Riff(Variation 2) Agallah's Verse
2:13 Riff(Variation 1)
2:34 Riff(Variation 2)  Hook

Riff (Variation 3) 2:55 once through
G|---------------------------------------------------------------------------|
D|---------------------------------------------------------------------------|
A|---------------------------------------------------------------------------|
E|11--13--14--16--18--18----18-18---18-14-13---------------------------------|

G|---------------------------------------------------------------------------|
D|---------------------------------------------------------------------------|
A|---------------------------------------------------------------------------|
E|11--11---11--11------------------------------------------------------------|

3:05 Riff (Variation 2) Only play this 3 times through
3:35 Riff (Variation 1) Keep playing this until 4:49
4:49 Riff (Variation 2) Slowly decrescendo to the end of the song

| /  slide up
| \  slide down
| h  hammer-on
| p  pull-off
| ~  vibrato
| +  harmonic
| x  Mute note
===============================================================================
Добавлено: 06.12.2015
Вам также может быть интересно:
Другие материалы по этой песне:
  • Аккорды и текст

Страница создана 06.12.2015
http://primanota.ru/sean-price/rising-to-top-featuring-agallah-bazaar-royale-chords.htm
Привет, Гость.
Предлагаем пройти революционный курс по гитаре.
Подарок от PrimaNota.Ru, забирай!