PrimaNota.ru - самый крупный в мире бесплатный архив песенных текстов, аккордов, табулатур и нот


Sean Paul - Breathe - текст песни, таба, видео

Регистрация Запомнить меня
Войти через:  Facebook Google Twitter Vk Yandex Mail.ru

Sean Paul - Breathe - текст песни, таба, видео

Печатать
Просмотров: 130
Авторы музыки: Ivan Matias, Alvin N Joiner, Stephon Harris Cunningham, Andrea Martin, Charles Aznavour, Marshall Bruce Mathers, Richard Bembery, Melvin Charles Bradford
Авторы текста: Ivan Matias, Alvin N Joiner, Stephon Harris Cunningham, Andrea Martin, Charles Aznavour, Marshall Bruce Mathers, Richard Bembery, Melvin Charles Bradford
-------------------------------------------------------------------------------
                             Sean Paul ft. Blue Cantrell - Breathe (Perf. Prendki)
-------------------------------------------------------------------------------
Tabbed by:Prendki

Tuning:Standard
***************************
           Intro
***************************

e|---x---0--x-----x-----x--|
B|0--x-0----x--3~-x--2~-x--|
G|---x------x-----x-----x--|
D|---x-4-2--x--0--x-----x--|
A|2--x------x-----x--4--x--|
E|---x------x-----x-----x--|

e|---x----0--x-----x------0---x--|
B|0--x--0----x--3~-x--2h3---3-x--|
G|---x-------x-----x----------x--|
D|---x--4-2--x--0--x----------x--|
A|2--x-------x-----x--4-------x--|
E|---x-------x-----x----------x--|

***************************
         Whole Song
***************************

e|----x--2-0--x-----x-0---x-2|
B|--3-x--3----x---3-x---2-x--|
G|--4-x--4----x-4-2-x---2-x--|
D|--4-x--4-2--x---0-x---2-x--|
A|2---x-------x-----x---0-x--|
E|----x----0--x-----x-----x--|

***************************
      Leave a Comment
***************************

| /   slide up
| \   slide down
| h   hammer-on
| p   pull-off
| ~   vibrato
| +   harmonic
| x   Mute note
| b   Bend
| pb  Pre-bend
| br  Bend release
| pbr Pre-bend release
| brb Bend release bend
Добавлено: 21.12.2015
Другие материалы по этой песне:
  • Аккорды и текст

Страница создана 28.07.2012
http://primanota.ru/sean-paul/breathe-chords.htm
Привет, Гость.
Предлагаем пройти революционный курс по гитаре.
Подарок от PrimaNota.Ru, забирай!