PrimaNota.ru - самый крупный в мире бесплатный архив песенных текстов, аккордов, табулатур и нот


Sean Nicholas Savage - She Looks Like You - аккорды и текст, таба, видео

Регистрация Запомнить меня
Войти через:  Facebook Google Twitter Vk Yandex Mail.ru

Sean Nicholas Savage - She Looks Like You - аккорды и текст, таба, видео

Печатать
Просмотров: 108
She Looks Like You
Sean Nicholas Savage
-------------------------------------------------------------------------------
                  She Looks Like You - Sean Nicholas Savage
-------------------------------------------------------------------------------

Tuning: Standard

I tabbed out the intro a little while ago, decided it's time to tab the chords for the song

this is based off of the music video not the recording, the guitar is much more prevalent live

    C  F        C  F
e|---------------------------------------------------------------------------|
B|--1--1--------1--1---------------------------------------------------------|
G|--2--0--------2--0---------------------------------------------------------|
D|--3--2--------3--2---------------------------------------------------------|
A|--3--3--------3--3---------------------------------------------------------|
E|---------------------------------------------------------------------------|

e|---------------------------------------------------------------------------|
B|---------------------------------------------------------------------------|
G|--7--9-----7--9--5--7--9-----7--9--5--7--9-----7--9--5--7--9-----9--7------|
D|--------7-----------------7-----------------7-----------------7------------|
A|---------------------------------------------------------------------------|
E|---------------------------------------------------------------------------|

e|---------------------------------------------------------------------------|
B|---------------------------------------------------------------------------|
G|--7--9-----7--9--5--7--9-----7--9--5--7--9-----7--9--5--7--9-----9---------|
D|--------7-----------------7-----------------7-----------------7------------|
A|---------------------------------------------------------------------------|
E|---------------------------------------------------------------------------|

also know G: 034550

C
Look in the mirror
          F
What do I see?
           G
I'm just a circumstance 
C            F
We're in the past
G
What can I do?
  C     F
I don't believe my side
          G
And these days I feel like
    C        F
I'm somebody else
C      G          C     F       
   Who looks like me
             Am  G  C  F
But he's not me 
                   C  G  C  F
He looks just like me
             Am  G
But he's not me

C          F
Everything changes
G
And if you don't too
    C          F
And before you know it
       C        G    C  F
You're not even you
G
It's such a shame
C       F       G
I can't believe I had to say goodbye
       C             F
To the people in the neighborhood
G
I left behind
C            F
I kissed you deep 
    G                             C  F
And there was nothing left inside

                C  G  C  F  
She looks like you
           C  G  C  F
But she's not you
                C  G  C  F  
She looks like you
            C  G  C  F
Oooohhh


Solo:  C  F

in the recorded version continue to play main riff over two choruses for the rest of the song
Добавлено: 30.07.2015
Другие материалы по этой песне:
  • Аккорды и текст

Страница создана 25.10.2014
http://primanota.ru/sean-nicholas-savage/she-looks-like-you-chords.htm
Привет, Гость.
Предлагаем пройти революционный курс по гитаре.
Подарок от PrimaNota.Ru, забирай!