PrimaNota.ru - самый крупный в мире бесплатный архив песенных текстов, аккордов, табулатур и нот


Sean Nicholas Savage - Other Life - аккорды и текст, видео

Регистрация Запомнить меня
Войти через:  Facebook Google Twitter Vk Yandex Mail.ru

Sean Nicholas Savage - Other Life - аккорды и текст, видео

Печатать
Просмотров: 80
Other Life
Sean Nicholas Savage
-------------------------------------------------------------------------------
                     Other Life - Sean Nicholas Savage
-------------------------------------------------------------------------------

Tuning: Standard

Am G   Dm 2x

Am    G              Dm
Waiting for another life 
Am          G             Dm
All I do is reminisce laying in my bed with a cigarette 
G             Am     F               G            G
Opportunities fading, crazy feelings staying only feelings 
         Am                    F                G
And if I go back now, how many nights till I go wild again?

Am G   Dm 4x

G                 Am
I'm gonna live my other life 
F                    G
Take a chance on the other side 
G                  Am           F       G
Maybe I'll give my other life a try tonight 

G                 Am
I'm gonna live my other life 
F                    G
Take a chance on the other side 
G                  Am           F       G
Maybe I'll give my other life a try tonight 

Am G   Dm 2x

Am    G          Dm
Waiting for that other life 
Am          G
How could I hurt you so bad? 
           Dm
You're the best thing that I ever had 

G                       Am
It's like we're getting older 
F                       G        
And the past is growing over
G                    Am
I used to sleep with my best friend 
           F                      G
That's the kind of thing that she never had 
G                       Am
But now I'm living that other life 
F                   G
Got a shot from the other side 
G                      Am        F              G
With the people that I never met places I never get 

G                 Am
I'm gonna live my other life 
F                    G
Take a chance on the other side 
G                  Am           F       G
Maybe I'll give my other life a try tonight 

C F G 2x

C                            F         G
We've stood on the edge of a beautiful life 
C                         F            G
Then turned away like two moles in the light 
C                                     F               G
I'm still living in my dreams and I'm wet when I come down 
C                                   F             G
Still ripping from the past that we held down and drowned
Am          G
Wake up and leave the light behind 

G                         Am
Cause now I'm living that other life 
F                G
Only hope I can get it right 
G                   Am                           F      G            
I need someone who don't look at things like who I left behind 

G                 Am
I'm gonna live my other life 
F                    G
Take a chance on the other side 
G                  Am           F       G
Maybe I'll give my other life a try tonight

G Am F G 6x (fade out)

See what it's like on the other side

Interlude riff:

e|---------------------------------15-15-13-13-12-12-10----------------------|
B|--17-17-15-13-----------17-17-15-----------------------17-17-15-13---------|
G|--------------14-12-14---------------------------------------------14-12-14|
D|---------------------------------------------------------------------------|
A|---------------------------------------------------------------------------|
E|---------------------------------------------------------------------------|

e|---------------------------------------------------------------------------|
B|--17-17-15-----13-15-17-15-13----------------------------------------------|
G|------------14----------------14-12-14-------------------------------------|
D|---------------------------------------------------------------------------|
A|---------------------------------------------------------------------------|
E|---------------------------------------------------------------------------|
Добавлено: 04.11.2015
Другие материалы по этой песне:
  • Аккорды и текст

Страница создана 04.11.2015
http://primanota.ru/sean-nicholas-savage/other-life-chords.htm
Привет, Гость.
Предлагаем пройти революционный курс по гитаре.
Подарок от PrimaNota.Ru, забирай!