PrimaNota.ru - самый крупный в мире бесплатный архив песенных текстов, аккордов, табулатур и нот


Sean Nicholas Savage - Ive Got The Worm - таба, видео

Регистрация Запомнить меня
Войти через:  Facebook Google Twitter Vk Yandex Mail.ru

Sean Nicholas Savage - Ive Got The Worm - таба, видео

Печатать
Просмотров: 82
-------------------------------------------------------------------------------
                   I've Got The Worm - Sean Nicholas Savage
-------------------------------------------------------------------------------

Tuning: Standard

Riff 1

e|---------------------------------------------------------------------------|
B|------------8-10--------------8--------------------------------------------|
G|--10-10--10------7--10-10--10---7------------------------------------------|
D|---------------------------------------------------------------------------|
A|---------------------------------------------------------------------------|
E|---------------------------------------------------------------------------|

Verse

e|-----------------------------------------------------------------------------------------------------------|
B|-----------------------------------------------------------------------------------------------------------|
G|-----------------------------------------------------------------------------------------------------------|
D|8-8-8-8-8-5-5-5-5-5 (2x)--------------------------8-8-8-8-8-5-5-5-5-5--------------------------------------|
A|-------------------------6-6-6-6-6-3-3-3-3-3-(2x)---------------------6-6-6-6-6-3-3-3-3-3-6-6-6-6-6-6-6-8-8|
E|-----------------------------------------------------------------------------------------------------------|

End Riff

e|---------------------------------------------------------------------------|
B|---------------------------------------------------------------------------|
G|--7-7-7-7-7--5-3--8-8-8-7-5------------------------------------------------|
D|---------------------------------------------------------------------------|
A|---------------------------------------------------------------------------|
E|---------------------------------------------------------------------------|

Riff 1

Verse
Oh oh here we come and it's almost midnight
I got a whole damn graveyard and I'm calling your heart
So I'm not the first to dig and I go down head first
I got the worm in my head and heart so I love you baby

Riff 1

Verse
Oh no a big fat lie when the lie took my time
like a sore old loser am I turn away on my side
Row row I row my boat in a real live nightmare
I can roll my head and heart too I can roll them somewhere

Riff 1

Verse
Here comes the Dracula with the big red cape on
This one's a lonely sailor and I'm a son of gun
There's still a little more left don't you leave me baby
Am I out of your head or are are you out of my head

Riff 1

Verse
Oh oh here we go and it's almost midnight
I got a whole damn graveyard and I'm calling your heart
So I'm not the first to dig and I go down head first
I got the worm in my head and heart so I love you baby

B (play as E barre chord)           E             F#   (play E and F# as A barre chords) (also End Riff)      
I got the worm in my head and heart so I love you baby            4x

B E F# 2x
Добавлено: 04.11.2015
Вам также может быть интересно:
Другие материалы по этой песне:
  • Аккорды и текст

Страница создана 04.11.2015
http://primanota.ru/sean-nicholas-savage/ive-got-worm-chords.htm
Привет, Гость.
Предлагаем пройти революционный курс по гитаре.
Подарок от PrimaNota.Ru, забирай!