PrimaNota.ru - самый крупный в мире бесплатный архив песенных текстов, аккордов, табулатур и нот


Sean Danielsen - Waves - таба, видео

Регистрация Запомнить меня
Войти через:  Facebook Google Twitter Vk Yandex Mail.ru

Sean Danielsen - Waves - таба, видео

Печатать
Просмотров: 111
-------------------------------------------------------------------------------
                             Waves - Sean Danielsen 
-------------------------------------------------------------------------------
Tabbed by:wallinman78
E-mail:

Tuning:Drop C#

                                Verse

e|--------------------------------------------------------------------------------------------------|
B|--------------0-----------------------0-----------------------0-----------------------------------|
G|-----------4-----4-----------------4-----4-----------------4-----4--------4/2--------2------------|
D|--------5-----------5-----------5-----------5-----------0-----------0----------0--------0---------|
A|-----5-----------------5-----5-----------------5-----0-----------------0----------0--------0------|
E|--5-----------------------5-----------------------0-----------------------------------------------|

e|---------------------------------------------------------------0-----------------------0----------|
B|----------------0----------------------0--------------------3-----3-----------------3-----3-------|
G|-0------------0-----0----------------0-----0--------------0-----------0-----------0----------0----|
D|----------2-----------2-----------2----------2--------2-----------------2-----2---------------2---|
A|-------2-----------------2-----2----------------2--3-----------------------3----------------------|
E|---2-----------------------2----------------------------------------------------------------------|


                          Chorus And The Rest Of The Song
e|--0-----0-----0-----0-----------------------------------------------------------------------------|
B|--0-----0-----0-----3-----------------------------------------------------------------------------|
G|--4-----5-----0-----2-----------------------------------------------------------------------------|
D|--5-----7-----2-----0-----------------------------------------------------------------------------|
A|--5-----7-----2-----0-----------------------------------------------------------------------------|
E|--5-----7-----2-----0-----------------------------------------------------------------------------|


************************************

| /   slide up
| \   slide down
| h   hammer-on
| p   pull-off
| ~   vibrato
| +   harmonic
| x   Mute note
| b   Bend
| pb  Pre-bend
| br  Bend release
| pbr Pre-bend release
| brb Bend release bend

************************************
Добавлено: 14.10.2015
Вам также может быть интересно:
Другие материалы по этой песне:
  • Аккорды и текст

Страница создана 14.10.2015
http://primanota.ru/sean-danielsen/waves-chords.htm
Привет, Гость.
Предлагаем пройти революционный курс по гитаре.
Подарок от PrimaNota.Ru, забирай!