PrimaNota.ru - самый крупный в мире бесплатный архив песенных текстов, аккордов, табулатур и нот


Seams - Fall Over - таба, видео

Регистрация Запомнить меня
Войти через:  Facebook Google Twitter Vk Yandex Mail.ru

Seams - Fall Over - таба, видео

Печатать
Просмотров: 81
Уроки эстрадного вокала в Санкт-Петербурге
-------------------------------------------------------------------------------
                             FALL OVER - Seams
-------------------------------------------------------------------------------
Tabbed by:Nick_H
E-mail:Youtube.com/user/cyotemoon

Tuning:Standard (capo 7th)

Intro/Verse 1
e--------0--------|      
B-----0--0-0---0--|
G----0------------|x2
D---2-------------|
A-3----3-----3----|
E-----------------|

e--------3--------------3/5-0-----|
B-----1--1-1---1-----1--1/3-3h5---|
G----0--------------0---0---0-----|
D---2--------------2----0---0-----|
A-0----0-----0---0----0-----------|
E---------------------------------|
                                                                          }x4
e--------0--------|
B-----3--3-3---3--|
G----2------------|x2
D---0-------------|
A-2----2-----2----|
E-----------------|

e--------0--------------0---------|                  --0~00-0---0-0-0-0--|
B-----3--3-3---3-----3--3-3---3---|Strum this instead--3~33-3---3-3-3-3--| 
G----2--------------2-------------| on the 4th time. --2~22-2x2-2-2-2-2--|
D---0--------------0--------------|   ------------>  --0~00-0---0-0-0-0--|
A---------------------------------|   (Alt. Ending)  --2~22-2---0-0-0-0--|
E-3----3-----3---2----2-----2-----|                  --3~33-3---2-2-2-2--|

Chorus
e----------------|
B----------------| 
G----------------|  Listen to the song 
D--2-------4-----| for the strum pattern.
A--3-------5-----|
E--3-------5-----|

Verse 2
e---------0~-0-----------3~-3/5-0------------0~-0---0~00-0---0-0-0-0--|      
B-----0---0~-0-------1---1~-1/3-3h5------3---3~-3---3~33-3---3-3-3-3--|
G----0-------0x2----0-------0---0-------2-------2x2-2~22-2x2-2-2-2-2--|x3
D---2--------2-----2--------0---0------0--------0---0~00-0---0-0-0-0--|
A-3----5~----3---0----0~-------------2----2~----2---2~22-2---0-0-0-0--|
E-----------------------------------------------0---3~33-3---2-2-2-2--|

Chorus

Verse 1 

End on
e--0~00-0---0~--|
B--3~33-3---3~--| 
G--2~22-2x2-2~--|
D--0~00-0---0~--|
A--2~22-2---0~--|
E--3~33-3---2~--|

************************************

| /   slide up
| \   slide down
| h   hammer-on
| p   pull-off
| ~   vibrato
| +   harmonic
| x   Mute note
| b   Bend
| pb  Pre-bend
| br  Bend release
| pbr Pre-bend release
| brb Bend release bend

************************************

Youtube.com/user/cyotemoon
Cover there.
Добавлено: 12.08.2013
Другие материалы по этой песне:
  • Аккорды и текст

Страница создана 12.08.2013
http://primanota.ru/seams/fall-over-chords.htm
Привет, Гость.
Предлагаем пройти революционный курс по гитаре.
Подарок от PrimaNota.Ru, забирай!