PrimaNota.ru - самый крупный в мире бесплатный архив песенных текстов, аккордов, табулатур и нот


Seals & Crofts - Get Closer - текст песни, бас-таба, видео

Регистрация Запомнить меня
Войти через:  Facebook Google Twitter Vk Yandex Mail.ru

Seals & Crofts - Get Closer - текст песни, бас-таба, видео

Печатать
Просмотров: 107
Уроки эстрадного вокала в Санкт-Петербурге
-----------------------------------------------------------------------------
                         GET CLOSER - Seals & Crofts
-----------------------------------------------------------------------------

Tabbed by: Matt Broback
E-mail: 37hambone@gmail.com

Tuning: E A D G

s = sixteenth note
. = accent note


INTRO
                                                   ss
|--------|--------|--------|--------|--------|---------|--------|--------|
|--------|2-------|--------|--------|----2---|---------|--------|--------|
|--------|--2-----|--------|3-33----|------2-|---------|0-3-33--|--------|
|3-------|---0----|1-------|-----3-3|3------0|---1-111-|--------|3--33---|


CHORUS 1
                                    x3
|---------|--------|--------|---------|--------|--------|--------|--------|
|:--------|--------|--------|--------:|--------|--------|------02|--------|
|:--------|--------|-------3|-33--3-5:|--------|--------|--------|-2------|
|-3--33--3|-33--3-3|3--33---|---------|3--33--3|-33--3-3|3--33---|--0-----|


VERSE 1
    ss          ss         ssss                          ss
|---------|----------|-----------|------4-|--------|-------|
|---------|----------|----------.|4-45-7-4|-042--2-|2:-----|
|0--2400--|0--0-240-.|0--0-2420-0|-4------|-----2--|4:-----|
|--------2|---------2|-----------|--------|-------0|---0-02|

    ss          ss ss      ssss   ss
|---------|----------|----------|---------|-2------|------|
|---------|----------|----------|4--45-054|--42--2-|2:--24|
|0--2400--|0--0-240..|00-0-24200|-44------|-----2--|4:----|
|--------2|--------02|----------|---------|-------0|---0--|


PRECHORUS 1
                          ss
|--------|--------|---------|------4-|--------|
|-------7|--------|---------|4-45-7-4|-4-2----|
|55-5-7--|-70--0-0|5--4-4-47|-4------|--2-----|
|--------|--------|-57------|--------|--------|


CHORUS 2
                                    x2
|---------|--------|--------|---------|--------|----------|--------|--------|
|:--------|--------|--------|--------:|--------|----------|--------|--------|
|:--------|--------|-------3|-33--3-5:|--------|----------|-------3|-33--3-5|
|-3--33--3|-33--3-3|3--33---|---------|3--33--3|-33--3-0h2|3--33---|--------|

|--------|--------|--------|--------|
|--------|--------|------02|--------|
|--------|--------|-----2--|-2------|
|3--33--3|-33--3-3|3--33---|--0-----|


VERSE 2
    ss          ss         ssss    ss                    ss
|---------|----------|----------|---------|--------|-------|
|---------|----------|----------|--------4|--42--2-|2:-----|
|0--2400--|0--0-240-.|00-0-2420-|--..--24-|-5---2--|4:-----|
|--------2|---------2|---------4|2-223----|-------0|---0202|

    ss   ss      ss  ss      ssss     ss
|----------|-----------|------------|---------|--------|------|
|----------|-----------|------------|4--45-024|-042--2-|2:----|
|0--2400---|0--0-240-..|00-0-2420-/4|-44------|-----2--|4:---2|
|--------02|---------02|------------|---------|-------0|--004-|


PRECHORUS 2
                          
|--------|---------|--------|--------|--------|--------|--------|------4-|
|-------7|--------7|-747-77-|--74----|-------7|--------|--------|4-45-7-4|
|55-5-7--|-70--0/7-|-------0|------7\|55-55-7-|-0-0-0-4|5024-447|-4------|
|--------|---------|--------|--------|--------|--2-2---|--------|--------|

|--------|------|
|--42----|2:----|
|-4------|4:----|
|------0-|------|


CHORUS 3
                                                  ss       .
|--------|--------|--------|------/99|--------|---------|--9-----|--------|
|--------|--------|--------|--7799---|--------|---------|--------|--------|
|7--77--7|---777-7|7--777-7|---------|7--777-7|-7---77-7|7--777-7|-7----77|
|--------|--------|--------|---------|--------|---00----|--------|--5577--|

             ss                                              ss
|--------|---------|--.-----|----------|--------|--------|--------|---------|
|--2-----|-2-2---2-|--2222--|----------|--2---2-|--2---2-|--22----|---------|
|---2----|----2----|------25|-4-5-4-4h5|--------|--------|----2--2|5-024--7\|
|0---00-0|-----00-0|0-------|----------|0--000-0|-0-000-0|0----00-|---------|


BREAK
         x7       ss
|----------|---------|
|:--------:|---------|
|:--------:|------404|
|----------|---------|


OUTRO
|--------|--------|--------|---------|--9-----|--------|--------|--------|
|--------|--------|--------|---------|--------|--------|--------|-47-----|
|--------|--------|------05|-/754-475|7-------|--------|-------5|---4-0--|
|0---00-0|----00-0|0---00--|---------|----00-0|-0--00-0|0---00--|------5\|

|--------|--------|--------|--------|--------|
|--------|--------|--2-----|--------|--------|
|--------|--------|--------|--------|--------|
|0---00-0|----00-0|0-------|--------|--------|

Добавлено: 16.02.2014
Другие материалы по этой песне:
  • Аккорды и текст

Страница создана 12.12.2013
http://primanota.ru/seals-and-crofts/get-closer-chords.htm
Привет, Гость.
Предлагаем пройти революционный курс по гитаре.
Подарок от PrimaNota.Ru, забирай!