PrimaNota.ru - самый крупный в мире бесплатный архив песенных текстов, аккордов, табулатур и нот


Seals And Croft - My Fair Share - таба, видео

Регистрация Запомнить меня
Войти через:  Facebook Google Twitter Vk Yandex Mail.ru

Seals And Croft - My Fair Share - таба, видео

Печатать
Просмотров: 91
MY FAIR SHARE – SEALS & CROFT
Tabbed by:Aaron James Bodoraya
Email:combat_ron33@yahoo.com
Tuning:standard 

INTRO: 
   Gm9         Gm          Gm9      Gm
e|--5--------5--3--------3--5--------3--------3-----|
B|--------3-----------3-----------3--------3--------|
G|-----3-----------3-----------3--------3-----------|
D|--5-----------------------5-----------------------|
A|--------------------------------------------------|
E|--------------------------------------------------|

VERSE 1:
   Gm9         Gm          Gm9      Gm
e|--5--------5--3--------3--5--------3--------3-----|
B|--------3-----------3-----------3--------3--------|
G|-----3-----------3-----------3--------3-----------|
D|--5-----------------------5-----------------------|
A|--------------------------------------------------|
E|--------------------------------------------------|
   LOST,                LOST AS A CHILD FIRST THOUGHT

    Ab                    D7/F#
e|--6-------6--4-----------------------2------------|
B|-------4-----------4-----------1-----------1------|
G|----5-----------5-----5-----2-----2-----2---------|
D|--------------------------------------------------|
A|--------------------------------------------------|
E|--4----------------------2------------------------|
                           I  MUST  HAVE  ARMS  TO 

   Gm          Gm7         Gm6
e|-----------3-----------3--------------3-----------|
B|--------3-----------3-----------3-----------3-----|
G|-----3-----------3-----------3-----3-----3--------|
D|--5--------5--3--------3--2-----------------------|
A|--------------------------------------------------|
E|--------------------------------------------------|
    HOLD  ME             LOST  WITHOUT  LOVIN  CARE

   Eb                       D7
e|--------------3-----------------------2-----------|
B|--------4-----------4-----------1-----------1-----|
G|-----3-----3-----3-----3-----2-----2-----2--------|
D|--1-----------------------0-----------------------|
A|--------------------------------------------------|
E|--------------------------------------------------|
                          I MUST HAVE MY FAIR SHARE

   Gm9         Gm          Gm9      Gm
e|--5--------5--3--------3--5--------3--------3-----|
B|--------3-----------3-----------3--------3--------|
G|-----3-----------3-----------3--------3-----------|
D|--5-----------------------5-----------------------|
A|--------------------------------------------------|
E|--------------------------------------------------|

VERSE 2:
   Gm9         Gm          Gm9      Gm
e|--5--------5--3--------3--5--------3--------3-----|
B|--------3-----------3-----------3--------3--------|
G|-----3-----------3-----------3--------3-----------|
D|--5-----------------------5-----------------------|
A|--------------------------------------------------|
E|--------------------------------------------------|
   FAIR,                FAIR IS A CHANGING WORD

    Ab                    D7/F#
e|--6-------6--4-----------------------2------------|
B|-------4-----------4-----------1-----------1------|
G|----5-----------5-----5-----2-----2-----2---------|
D|--------------------------------------------------|
A|--------------------------------------------------|
E|--4----------------------2------------------------|
                      BUT  FAIR  IS  AN  HONORED

   Gm          Gm7         Gm6
e|-----------3-----------3--------------3-----------|
B|--------3-----------3-----------3-----------3-----|
G|-----3-----------3-----------3-----3-----3--------|
D|--5--------5--3--------3--2-----------------------|
A|--------------------------------------------------|
E|--------------------------------------------------|
    PRO___MISE         JUSTICE IF YOU’RE STILL THERE

   Eb                       D7
e|--------------3-----------------------2-----------|
B|--------4-----------4-----------1-----------1-----|
G|-----3-----3-----3-----3-----2-----2-----2--------|
D|--1-----------------------0-----------------------|
A|--------------------------------------------------|
E|--------------------------------------------------|
                          I WILL HAVE MY FAIR SHARE

   G
e|--------------3-----------------------3-----------|
B|--------3-----------3-----------3-----------3-----|
G|-----4-----4-----4-----4-----4-----4-----4-----4--|
D|--------------------------------------------------|
A|--------------------------------------------------|
E|--3-----------------------3-----------------------|
                                JUSTICE     SEEMS 

CHORUS:
    C                      Am         D7/F#
e|--------------0-----------------------------------|
B|--------1-----------1-----------1-----------1-----|
G|-----0-----0-----0-----0-----2-----2-----2-----2--|
D|--------------------------------------------------|
A|--3-----------------------0-----------------------|
E|--------------------------------------2-----------|
   A     LA___DY                   LAY   ME   DOWN

    G                       Em
e|--------------3-----------------------0-----------|
B|--------0-----------------------0-----------0-----|
G|-----0-----0-----0-----0-----0-----0-----0-----0--|
D|--------------------------------------------------|
A|--------------------------------------------------|
E|--3-----------------2------0----------------------|
   WITH JUSTICE IN A LONG WHITE GOWN WITH THE BREATH OF

   A7                       D
e|--------------0-----------------------2-----------|
B|--------2-----------2-----------3-----------3-----|
G|-----0-----0-----0-----0-----2-----2-----2-----2--|
D|--------------------------0-----------------------|
A|--0-----------------------------------------------|
E|--------------------------------------------------|
     LOVE     WE     CAN     SHARE

Gm9         Gm          Gm9      Gm
e|--5--------5--3--------3--5--------3--------3-----|
B|--------3-----------3-----------3--------3--------|
G|-----3-----------3-----------3--------3-----------|
D|--5-----------------------5-----------------------|
A|--------------------------------------------------|
E|--------------------------------------------------|
    SHARE,             SLEEP   WITH   ME   IF  YOU

    Ab                    D7/F#
e|--6-------6--4-----------------------2------------|
B|-------4-----------4-----------1-----------1------|
G|----5-----------5-----5-----2-----2-----2---------|
D|--6-----------------------------------------------|
A|--------------------------------------------------|
E|-------------------------2------------------------|
   THERE,                  CELEBRATE      MY

e|--------------2-------------|
B|--------1-----------1-------|
G|-----2-----2-----2----------|
D|--0-------------------------|
A|----------------------------|
E|----------------------------|
                 FAIR   SHARE   
ADLIB:
	
e|--5--------5--3--5---------5--6--8--6--5----------|
B|--------3-----------3---------------------8~~-----|
G|-----3--------------------------------------------|
D|--5-----------5-----------------------------------|
A|--------------------------------------------------|
E|--------------------------------------------------|

e|-----5--6--5--------5~~----------5----------------|
B|--8-----------8--5---------7--8-----8--7—8~~------|
G|--------------------------------------------------|
D|--------------------------------------------------|
A|--------------------------------------------------|
E|--------------------------------------------------|

e|--------------------------------------------------|
B|--5--7--8--7--5—7~~-------------------------------|
G|--------------------------------------------------|
D|--------------------------------------------------|
A|--------------------------------------------------|
E|--------------------------------------------------|
 
REPEAT 2ND VERSE CHORUS MOVE CHORDS 1/2 FRET HIGHER

CODA:
   Abm                                               Abm
e|--6--------6--4--------4--6--------6--4--------4----4--|
B|--------4-----------4-----------4-----------4-------4--|
G|-----4-----------4-----------4-----------4----------4--|
D|-------------------------------------------------------|
A|-------------------------------------------------------|
E|--4-----------------------4-------------------------4--|

Добавлено: 10.07.2013
Другие материалы по этой песне:
  • Аккорды и текст

Страница создана 10.07.2013
http://primanota.ru/seals-and-croft/my-fair-share-chords.htm
Привет, Гость.
Предлагаем пройти революционный курс по гитаре.
Подарок от PrimaNota.Ru, забирай!