PrimaNota.ru - самый крупный в мире бесплатный архив песенных текстов, аккордов, табулатур и нот


Seahorses - I Want You To Know - таба, видео

Регистрация Запомнить меня
Войти через:  Facebook Google Twitter Vk Yandex Mail.ru

Seahorses - I Want You To Know - таба, видео

Печатать
Просмотров: 74
Уроки эстрадного вокала в Санкт-Петербурге
The Seahorses - I want you to know , from the album "C it yourself".
Transcribed by Paul Broadbent of Gosport,Hants U.K. E-mail
paulboy70@hotmail.com
This is all my own work.
A simple intro which will be easy to get the hang of. The verse is a little
bit more difficult but with practice it'll be worth it. Best played with a
touch of gain to increase the desired effect. I think it's correct, it
sounds ok to me, but as always listen to the track to master the
technique.Enjoy !!
Any improvements welcome.

Intro: G     G7sus4             G                  G7sus4        G
 
E--------------------------------------------------------------
A--------------------------------------------------------------3
D--------------------------------------------------------------3
G-------5----5---------3------------------5----5--------3-----
B----------------3--5-----5--3--------------------3--5--------
E---3----------------------------6-----3----------------------- 



            so did you think that you had it....................
E------------------------------------------------------
A------------------------------------------------------
D----------------------------------------------4--/-7-
G-----5---------------------------------5-------------
B-------------------------------------------------------
E--3----------1--x--1----0--1----3------------------

----------------------------------------
6--5--6--5----------------------------
----------------------------------------
--------------------5------5-------12/3-
--------------------------------x-------
---------------6---------3----x----------

E---------------------------------------------------
A-----------0--------6-5-6-5---------------------
D---------------4/7---------------------------------
G--5----5-------------------------------5------5--
B---------------------------------------------------
E-----3-------------------------6-----------3------

-----------------------------------------------
----------------------------------6-5-6-5----
---------------------------4/7-----------------
-------------------------5---------------------
-------------------8/0-------------------------
-1--0--1---0--1---------------------------6--




Chord used Chorus;


G7sus4    D      Dsus4D     F/D    C/D     G      G7sus4    G

     
Добавлено: 15.10.2013
Вам также может быть интересно:
Другие материалы по этой песне:
  • Аккорды и текст

Страница создана 13.10.2013
http://primanota.ru/seahorses/i-want-you-to-know-chords.htm
Привет, Гость.
Предлагаем пройти революционный курс по гитаре.
Подарок от PrimaNota.Ru, забирай!