PrimaNota.ru - самый крупный в мире бесплатный архив песенных текстов, аккордов, табулатур и нот


Seahaven - Save Me - таба, видео

Регистрация Запомнить меня
Войти через:  Facebook Google Twitter Vk Yandex Mail.ru

Seahaven - Save Me - таба, видео

Печатать
Просмотров: 86
-------------------------------------------------------------------------------
                             Save Me - Seahaven
-------------------------------------------------------------------------------

drop d

e|----------------------------------------------------------------------------|
B|----------------------------------------------------------------------------|
G|----------------------------------------------------------------------------|
D|--999999999999999999999-2222/5555-------------------------------------------|x2
A|--999999999999999999999-2222/5555-------------------------------------------|x2
E|--999999999999999999999-2222/5555-------------------------------------------|x2
     ******************** ***  ***

e|---------------------------------------------------------------------------|
B|---------------------------------------------------------------------------|
G|---------------------------------------------------------------------------|
D|-9999-4/55-000-4/55-x4-----------------------------------------------------|
A|-9999-4/55-000-4/55-x4-----------------------------------------------------|
E|-9999-4/55-000-4/55-x4-----------------------------------------------------|

e|---------------------------------------------------------------------------|
B|---------------------------------------------------------------------------|
G|---------------------------------------------------------------------------|
D|-5-0-0h4-4h55----x3-5------------------------------------------------------|
A|-5-0-0h4-4h55----x3-5------------------------------------------------------|
E|-5-0-0h4-4h55----x3-5------------------------------------------------------|


first submit, figure out the strumming :)
Добавлено: 19.11.2013
Другие материалы по этой песне:

Страница создана 11.09.2013
http://primanota.ru/seahaven/save-me-chords.htm
Привет, Гость.
Предлагаем пройти революционный курс по гитаре.
Подарок от PrimaNota.Ru, забирай!