PrimaNota.ru - самый крупный в мире бесплатный архив песенных текстов, аккордов, табулатур и нот


Seahaven - Its Over - таба, видео

Регистрация Запомнить меня
Войти через:  Facebook Google Twitter Vk Yandex Mail.ru

Seahaven - Its Over - таба, видео

Печатать
Просмотров: 106
Standard Tuning
Guitar 1 [0:00-0:28]
|-------------------------------------------------------------------------|
|-------------------------------------------------------------------------|
|---------0--------------0--------------0--------------0------------------|
|------3-----3-3-------3----3-3-------3----3-3-------3----3-3-------------|
|-0h1--1------1-----3--3-----3-----5--5-----5-----3--3-----3--------------|
|-------------------------------------------------------------------------|
|
|-------------------------------------------------------------------------|
|-------------------------------------------------------------------------|
|---------0--------------0--------------0---------------------------------|
|------3-----3-3-------3----3-3-------3----3-3----------------------------|
|---1--1------1-----3--3-----3-----5--5-----5-----3-----------------------|
|-------------------------------------------------------------------------|
|
|
|x2

Guitar 1 [0:28-0:42]
|-------------------------------------------------------------------------|
|-------------------------------------------------------------------------|
|----------------2---3-2-0-----------------------5-5-2p0------------------|
|-----3---3----------------3---------3------5-----------------------------|
|-0h1----1-1--3----3----------3/5--5---5--3---3---------------------------|
|-------------------------------------------------------------------------|
|
|-------------------------------------------------------------------------|
|-------------------------------------------------------------------------|
|----------------2---3-2-0------------------------------------------------|
|-----3---3----------------3---------3---------5-5-5-5--------------------|
|---1----1-1--3----3----------3/5--5---5--3--3-3-3-3-3--------------------|
|-------------------------------------------------------------------------|
|
|
|x1

Guitar 2 [0:34-0:42]
|-------------------------------------------------------------------------|
|-------------------------------------------------------------------------|
|--5/7--5-----------5--7--5~-----2~~--------------------------------------|
|----------7--5--7--------------------------------------------------------|
|-------------------------------------------------------------------------|
|-------------------------------------------------------------------------|

Добавлено: 06.07.2013
Другие материалы по этой песне:

Страница создана 06.07.2013
http://primanota.ru/seahaven/its-over-chords.htm
Привет, Гость.
Предлагаем пройти революционный курс по гитаре.
Подарок от PrimaNota.Ru, забирай!