PrimaNota.ru - самый крупный в мире бесплатный архив песенных текстов, аккордов, табулатур и нот


Seahaven - Goodnight - таба, видео

Регистрация Запомнить меня
Войти через:  Facebook Google Twitter Vk Yandex Mail.ru

Seahaven - Goodnight - таба, видео

Печатать
Просмотров: 148
My first guitar tab.
Made this song from sheet music into guitar tabs.
Email for questions: bkelley1994@gmail.com\

Intro

Guitar 1

e|------------|
B|------------|
G|------------|
D|------------| x4
A|-2-2--2-2-4-|
E|-----3-3-3--|

 

Guitar 2

          C#m7    Asus2     E5      Bsus4

e|-----------0-------0--------0-------0-------|
B|-----------0-------0--------0-------0-------|
G|-----------6-------2--------9-------4-------|
D|-----------6-------2--------9-------4-------|
A|-----------4-------0--------7-------2-------|
E|--------------------------------------------|

 

 

Guitar 1

e|-----------------|
B|-----------------|
G|-----------------|
D|-2-2--2-2-4------|   x3
A|-----4-4---------|
E|-----------------|

 

Guitar 2

           C#m7    Asus2   E5

e|-----------0-------0-----0-|
B|-----------0-------0-----0-|
G|-----------6-------2-----9-|
D|-----------6-------2-----9-|
A|-----------4-------0-----7-|
E|---------------------------|

 

 

Guitar 1

e|-----------------------------|
B|-----------------------------|
G|-----------------------------|
D|-----------------------------|     
A|-----------------------------|
E|-0-0-0--4-4-4--0-0-0-2-2-2---|

 

Guitar 2

Bsus4

e|0-------|
B|0-------|
G|4-------|
D|4-------|
A|2-------|
E|--------|

 

Guitar 1

 

e|----------------|
B|----------------|
G|----------------|
D|----------------|   
A|----------------|
E|-4-4-4-2-2-2-0--|

 

Guitar 2

 

F#sus

e|-----|
B|-2---|
G|-2---|
D|-4---|
A|-----|
E|-----|

 

Verse:

“Goodnight my love……defining feature”

        C#m7     Asus2       E5      Bsus4

e|-----------0-------0--------0-------0-------|
B|-----------0-------0--------0-------0-------|
G|-----------6-------2--------9-------4-------|
D|-----------6-------2--------9-------4-------|
A|-----------4-------0--------7-------2-------|
E|--------------------------------------------|

 

PRE-CHORUS

 

Guitar 1

C#m7        Bsus4       Asus2

e|-------------------------------|
B|--------------4----------------|
G|----4--------------------2-----|
D|--2--2-2----2--2-2----2-----4--|    x2
A|-4-4--4----2-2--2----0-0-----0-|
E|-------------------------------|

 

 

Guitar 2

C#m7    Bsus4 Asus2

e|0----0------0-------|
B|0----0------0-------|
G|6----4------2-------|
D|6----4------2-------|       x2
A|4----2--------------|
E|--------------------|

 

PRECHORUS2:

 

C#m7        Asus2             E5          Bsus4       C#m7

The absence of consciousness, welcomes the presence of formulated

 

manipulation.


CHORUS:

“Feel what I feel... familiar with the Devil”

        C#m7     Bsus4       Asus2    E5      

e|-----------0-------0--------0-------0-------|
B|-----------0-------0--------0-------0-------|
G|-----------6-------4--------2-------9-------|
D|-----------6-------4--------2-------9-------|
A|-----------4-------2--------0-------7-------|
E|--------------------------------------------|

 

C#m7  Asus2       E5          Bsus4       C#m7
God I need you, because I am familiar with the Devil.

 

C#m7  Asus2       E5                            Bsus4                        


I've been waiting for the sun to come and dry up all this rain,

C#m7

But I'm caught out in the storm.

VERSE:

“It's three a.m…your destination.”

        C#m7     Asus2       E5      Bsus4

e|-----------0-------0--------0-------0-------|
B|-----------0-------0--------0-------0-------|
G|-----------6-------2--------9-------4-------|
D|-----------6-------2--------9-------4-------|
A|-----------4-------0--------7-------2-------|
E|--------------------------------------------|


PRECHORUS:

“Where will you go… if you don't.”

        C#m7     Bsus4       Asus2    E5      

e|-----------0-------0--------0-------0-------|
B|-----------0-------0--------0-------0-------|
G|-----------6-------4--------2-------9-------|
D|-----------6-------4--------2-------9-------|
A|-----------4-------2--------0-------7-------|
E|--------------------------------------------|

 

CHORUS:

“Feel what I feel... familiar with the Devil”

        C#m7     Bsus4       Asus2    E5      

e|-----------0-------0--------0-------0-------|
B|-----------0-------0--------0-------0-------|
G|-----------6-------4--------2-------9-------|
D|-----------6-------4--------2-------9-------|
A|-----------4-------2--------0-------7-------|
E|--------------------------------------------|

 

BRIDGE:

 

Asus2                         F#sus                   E5
Your safety came with distance but you foolishly fell into consistency.

 

Asus2                         F#sus                   E5
Place your hand where it does not belong and I'll be a reminder of your size.

Asus2                               C#m7                    E5
Your steady way mirrors the end, the vibrance that fill the pillow behind the

 

Bsus4

head.

OUTRO:

“The one you chose…Buenas Noches.”

          C#m7     Asus2       E5      Bsus4

e|-----------0-------0--------0-------0-------|
B|-----------0-------0--------0-------0-------|
G|-----------6-------2--------9-------4-------|
D|-----------6-------2--------9-------4-------|
A|-----------4-------0--------7-------2-------|
E|--------------------------------------------|

 



End on C#m7
Добавлено: 19.06.2013
Другие материалы по этой песне:
  • Аккорды и текст

Страница создана 19.06.2013
http://primanota.ru/seahaven/goodnight-chords.htm
Привет, Гость.
Предлагаем пройти революционный курс по гитаре.
Подарок от PrimaNota.Ru, забирай!