PrimaNota.ru - самый крупный в мире бесплатный архив песенных текстов, аккордов, табулатур и нот


Seahaven - Black White - таба, видео

Регистрация Запомнить меня
Войти через:  Facebook Google Twitter Vk Yandex Mail.ru

Seahaven - Black White - таба, видео

Печатать
Просмотров: 63
Drop D Tuning.

Guitar 1
[0:00]-[0:20]
|------------------------------------------|
|------------------------------------------|
|------------------------------------------|
|--9-9-9------7-7-7------9-9-9------7\7----|
|---9-9-9-x5---9-9-9-x2---9-9-9-x6--9\5----|
|------------------------------------------|

Guitar 1 & 2
[0:20]-[0:41]
|-----------------------------------------------------|
|-----------------------------------------------------|
|-----------------------------------------------------|
|--7h9----------12-12---------7h9---------12-12-12\---|
|--7h9-9-9-9-9--12-12-9-9-9-9-7h9-9-9-9-9-12-12-12\---|
|--7h9-9-9-9-9--12-12-9-9-9-9-7h9-9-9-9-9-12-12-12\---|
|pm    . . . .        . . . .     . . . .
|
|-----------------------------------------------------|
|-----------------------------------------------------|
|-----------------------------------------------------|
|--7h9----------12-12---------7-----------------------|
|--7h9-9-9-9-9--12-12-9-9-9-9-7-7-7-7-7-777-0-0-0-0-0-|
|--7h9-9-9-9-9--12-12-9-9-9-9-7-7-7-7-7-777-0-0-0-0-0-|
|pm    . . . .        . . . .   . . . . ... . . . . .
|
|x2

Guitar 1
[0:41]-[1:01]
|-----------------------------------------------------------|
|------0~-----0~-----0~-----0~-----0~-----0~-----0~-----0~--|
|---7------7------7------7------9------9------7------7------|
|--0-0----0-0----0-0----0-0----0-0----0-0----0-0----0-0-----|
|-5------5------5------5------0------0------5------5--------|
|-----------------------------------------------------------|
|
|x2

Guitar 1
[1:01]-[1:21]
|-------------------------------|
|-------------------------------|
|--7~--------------9~-------7~--|
|--7~--------------7~-------5~--|
|--5~--------------7~-------5~--|
|------------------7~-------5~--|
|
|x2

Guitar 1 & 2
[1:21]-[1:43]
|-----------------------------------------------------|
|-----------------------------------------------------|
|-----------------------------------------------------|
|--7h9----------12-12---------7h9---------12-12-12\---|
|--7h9-9-9-9-9--12-12-9-9-9-9-7h9-9-9-9-9-12-12-12\---|
|--7h9-9-9-9-9--12-12-9-9-9-9-7h9-9-9-9-9-12-12-12\---|
|pm    . . . .        . . . .     . . . .
|
|------------------------------------------------------------------------------|
|------------------------------------------------------------------------------|
|------------------------------------------------------------------------------|
|--7h9----------12-12---------7-----------------------7------------------------|
|--7h9-9-9-9-9--12-12-9-9-9-9-7-7-7-7-7-777-0-0-0-0-0-7-7-7-7-7-777-0-0-0-0-0--|
|--7h9-9-9-9-9--12-12-9-9-9-9-7-7-7-7-7-777-0-0-0-0-0-7-7-7-7-7-777-0-0-0-0-0--|
|pm    . . . .        . . . .   . . . . ... . . . . .   . . . . ... . . . . .
|
|x2

Guitar 1
[1:43]-[2:04]
|-----------------------------------------------------------|
|------0~-----0~-----0~-----0~-----0~-----0~-----0~-----0~--|
|---7------7------7------7------9------9------7------7------|
|--0-0----0-0----0-0----0-0----0-0----0-0----0-0----0-0-----|
|-5------5------5------5------0------0------5------5--------|
|-----------------------------------------------------------|
|
|x2

Guitar 2
[1:54]-[2:04]
|--------------------------|
|--7~----7~--------7~--7~--|
|--9~----9~--------7~--7~--|
|--9~----9~--------7~--9~--|
|--------------------------|
|--------------------------|

Guitar 1
[2:04]-[2:24]
|-------------------------------------------------------------------0-----|
|--------------7b----------------------------------------7b-----7-----7---|
|---------7-7-----------7-7--7h9p7---6h7p6-------7-7h9p7----------6----6--|
|----5-----5-5-----5-----5-5-------5--------5-----5----------5------------|
|-------------------------------------------------------------------------|
|-------------------------------------------------------------------------|
|pm  .     . .     .     . .       .        .     .          .   
|
|x2

Guitar 1 & 2
[2:24]-[2:47]
|-----------------------------------------------------|
|-----------------------------------------------------|
|-----------------------------------------------------|
|--7h9----------12-12---------7h9---------12-12-12\---|
|--7h9-9-9-9-9--12-12-9-9-9-9-7h9-9-9-9-9-12-12-12\---|
|--7h9-9-9-9-9--12-12-9-9-9-9-7h9-9-9-9-9-12-12-12\---|
|pm    . . . .        . . . .     . . . .
|
|------------------------------------------------------------------------------|
|------------------------------------------------------------------------------|
|------------------------------------------------------------------------------|
|--7h9----------12-12---------7-----------------------7------------------------|
|--7h9-9-9-9-9--12-12-9-9-9-9-7-7-7-7-7-777-0-0-0-0-0-7-7-7-7-7-777-0-0-0-0-0--|
|--7h9-9-9-9-9--12-12-9-9-9-9-7-7-7-7-7-777-0-0-0-0-0-7-7-7-7-7-777-0-0-0-0-0--|
|pm    . . . .        . . . .   . . . . ... . . . . .   . . . . ... . . . . .
|
|x2

Guitar 1 & 2
[2:47]-[2:50]
|--------------------------|
|--------------------------|
|--------------------------|
|--7------------7-------9--|
|--7-7-7-7-7-77-7-7-7-8-9--|
|--7-7-7-7-7-77-7-7-7-8-9--|
pm   . . . . ..   . . . 

Guitar 1 & 2
[2:50]-[3:10]
|-------------------------------------|
|-------------------------------------|
|-------------------------------------|
|--9----9----9--------9\----9\----9\--|
|--9----9----9--------9\----9\----9\--|
|--9----9----9--------9\----9\----9\--|

Guitar 1
[3:10]-[3:30]
|----------------------------------|
|----------------------------------|
|----------------------------------|
|--999999-000000-555555-5p0-3p0-0--|
|--999999-000000-555555-5p0-3p0-0--|
|--999999-000000-555555-5p0-3p0-0--|
|
|x4

Guitar 2
[3:20]-[3:33]
|------------------------------------------------------------------------------|
|------------------------------------------------------------------------------|
|--11-11-11-12-11-11--11-11-11-12-11-11--11-11-11-12-11-11--12-12-12-12-12-12--|
|--x--x--x--x--x--x---x--x--x--x--x--x---x--x--x--x--x--x---x--x--x--x--x--x---|
|--9--9--9--10-9--9---9--9--9--10-9--9---9--9--9--10-9--9---10-10-10-10-10-10--|
|------------------------------------------------------------------------------|
|
|--------------------------------------------------------------|
|--------------------------------------------------------------|
|--11-11-11-12-11-11-------------------------------------------|
|--x--x--x--x--x--x---0~----555555-5p0-3p0-0---7h9----------9--|
|--9--9--9--10-9--9---0~----555555-5p0-3p0-0---7h9-9-9-9-9--9--|
|---------------------0~----555555-5p0-3p0-0---7h9-9-9-9-9--9--|
pm                                                 . . . .

Guitar 1 & 2
[3:33]-[3:51]
|--------------------------------------------------------------------------|
|--------------------------------------------------------------------------|
|--------------------------------------------------------------------------|
|-7h9---------12-12-12--7h9---------12-12---------7------------------------|
|-7h9-9-9-9-9-12-12-12--7h9-9-9-9-9-12-12-9-9-9-9-7-7-7-7-7-777-0-0-0-0-0--|
|-7h9-9-9-9-9-12-12-12--7h9-9-9-9-9-12-12-9-9-9-9-7-7-7-7-7-777-0-0-0-0-0--|
|pm   . . . .               . . . .       . . . .   . . . . ... . . . . .
|
|------------------------------------------------------------------------------------------------|
|------------------------------------------------------------------------------------------------|
|------------------------------------------------------------------------------------------------|
|-7h9---------12-12---------7h9---------12-12-7---7h9-----12-12---------7------------------------|
|-7h9-9-9-9-9-12-12-9-9-9-9-7h9-9-9-9-9-12-12-7---7h9-9-9-12-12-9-9-9-9-7-7-7-7-7-777-0-0-0-0-0--|
|-7h9-9-9-9-9-12-12-9-9-9-9-7h9-9-9-9-9-12-12-7---7h9-9-9-12-12-9-9-9-9-7-7-7-7-7-777-0-0-0-0-0--|
|pm   . . . .       . . . .     . . . .               . .       . . . .   . . . . ... . . . . . 

Guitar 1 & 2
[3:51]-[3:58]
|----------------------------|--------------------------|
|----------------------------|--------------------------|
|----------------------------|--------------------------|
|-7--------------------------|-7-------------7-------9--|
|-7-7-7-7-7-777-0-0-0-0-0----|-7-7-7-7-7-777-7-7-7-8-9--|
|-7-7-7-7-7-777-0-0-0-0-0--x2|-7-7-7-7-7-777-7-7-7-8-9--|
|pm . . . . ... . . . . .        . . . . ...   . . . 
Добавлено: 05.09.2013
Другие материалы по этой песне:
  • Аккорды и текст

Страница создана 05.09.2013
http://primanota.ru/seahaven/black-white-chords.htm
Привет, Гость.
Предлагаем пройти революционный курс по гитаре.
Подарок от PrimaNota.Ru, забирай!