PrimaNota.ru - самый крупный в мире бесплатный архив песенных текстов, аккордов, табулатур и нот


Sea Pinks - Oh London - аккорды и текст, видео

Регистрация Запомнить меня
Войти через:  Facebook Google Twitter Vk Yandex Mail.ru

Sea Pinks - Oh London - аккорды и текст, видео

Печатать
Просмотров: 86
Уроки эстрадного вокала в Санкт-Петербурге
Oh London
Sea Pinks
Oh London by Sea Pinks 


Intro: (x3)

E-0--0--0--0--0--0--0--0---0-0-0-0-0-0-0-0-|
B-10-10-0--0--10-10-0--0---8-8-0-0-8-8-0-0-|
G-11-11-11-11-11-11-11-11--9-9-9-9-9-9-9-9-|  
D------------------------------------------|    
A------------------------------------------|  
E------------------------------------------|    

Verse: 

    D        F#m 
Oh I don't know 

    D    F#m 
I don't know 

        Bm      F#m 
Must be difficult 

         Bm     F#m 
It must be difficult 

             D           F#m 
When you're so young and all

        D           F#m 
You're so young and all 

         Bm   F#m 
To be so cynical 

         Bm   F#m 
To be so cynical

 D
Oh London 


Bridge: (x3) 

E-0--0--0--0--0--0--0--0---0-0-0-0-0-0-0-0-|
B-10-10-0--0--10-10-0--0---8-8-0-0-8-8-0-0-|
G-11-11-11-11-11-11-11-11--9-9-9-9-9-9-9-9-|  
D------------------------------------------|    
A------------------------------------------|  
E------------------------------------------|

Verse: 

     D      F#m 
Oh I don't know 

   D    F#m 
I don't know 

           Bm      F#m 
It must be so difficult 

 Bm       F#m 
So difficult 

            D      F#m 
When you're so wonderful 

        D        F#m 
You're so wonderful

         Bm   F#m 
To be so typical

        Bm    F#m 
To be so typical


Outro:

  D 
Oh London 

                        Bm 
I don't live there anymore

         D                                   Bm 
Were you so wonderful or f..king horrible, wa-oh

                            D
You know I've seen it all before

                 D 
I've seen it all before



Добавлено: 20.10.2015
Другие материалы по этой песне:
  • Аккорды и текст

Страница создана 20.10.2015
http://primanota.ru/sea-pinks/oh-london-chords.htm
Привет, Гость.
Предлагаем пройти революционный курс по гитаре.
Подарок от PrimaNota.Ru, забирай!