PrimaNota.ru - самый крупный в мире бесплатный архив песенных текстов, аккордов, табулатур и нот


Sea Of Treachery - Purging Of The Wicked - таба, видео

Регистрация Запомнить меня
Войти через:  Facebook Google Twitter Vk Yandex Mail.ru

Sea Of Treachery - Purging Of The Wicked - таба, видео

Печатать
Просмотров: 113
Sea Of Treachery - Purging Of The Wicked (solo)

Tabbed by: Gofusiesbass09--12/29/08


okay i got most of this i think tabbed. if its wrong at some parts, let me know. feel 
to leave comments. this is my first solo tab.

after this tab, im sure you'll get the jist of it. if anything, make your OWN STUFF UP!. 
WHAT SOLOING IS. SO I WONT TOLLERATE "OH YOU GOT THIS ALL
WRONG YOU SUCK" COMMENTS.


tab guide:

() - Let Ring

/or\ - slide up or down to note

* - pinch harmonic

^ - bend 1/2 step

^^ bend 1 whole step

^r - bend and release

v - vibrato

h - hammer on

p - pull off

. - Palm Mute

Solo (3:48):

D----------------------------------------------------------------------------------|
A------------------------------15--------------------------------------------------|
F----------------14-12^r--12^^----12v--10h12p10------------------------------------|
C-7/10-10/12-12---------------------------------10/12-12-12-15-15-14-14-15-15------|
G----------------------------------------------------------------------------------|
C----------------------------------------------------------------------------------|


D----13------------------------------------------------------------------------------------|
A-15^--15v-13h15p13------------------------------------------------------------------------|
F-------------------15\13------------------------------------------------------------------|
C-------------------------15p14-14/15-151515-1414-15-15-15-15-1717-15-14-15-14h15p14-------|
G------------------------------------------------------------------------------------15----|
C------------------------------------------------------------------------------------------|


D-------------------------------------------------------------------------------|
A-------------------5h6h8-6v--666-55h6-6/8-888-7-8-8*-6p5/6---------------------|
F-------------5h7h8-------------------------------------------------------------|
C-------5h7h8-------------------------------------------------------------------|
G-5h7h8-------------------------------------------------------------------------|
C-------------------------------------------------------------------------------|
  . . . . . . . . .


|-----------------------------------------------------------------|
|-13-13-13-11-10-11-10----10--------------------------------------|
|----------------------12----12-10-12-10-9-10-9----9--------------|
|-----------------------------------------------12---12-10-10/12~-|
|-----------------------------------------------------------------|
|-----------------------------------------------------------------|

but after you do that it goes to this part here:

D--------------------------------------------------------------------------------------|
A--------------------------------------------------------------------------------------|
F-12^r----12^r----12^r----12^r-------------------------------14h15h17-15-14-15p14v-----|
C------15------15------15------15-14h15p14-------14-15-17-15---------------------------|
G------------------------------------------15-15---------------------------------------|
C--------------------------------------------------------------------------------------|


D------13---------------------------------------------------------------------------------------|
A-15^^----15v-13h15p13--------------------------------------------------------------------------|
F----------------------15\13-13/15--------------------------------------------------------------|
C----------------------------------15--151515-14-14h15-15-15-15-17-17-15-15-14-14h15p14------(0)|
G---------------------------------------------------------------------------------------15---(0)|
C--------------------------------------------------------------------------------------------(0)|


that should be the jist of it.

if u have any questions comments feel free to give corrections or any of that stuff. 
i said this is just the jist of it. soloing is about

being creative.


-alex

COMMENT/RATE/CORRECT BUT BE POLITE!
Добавлено: 01.06.2012
Другие материалы по этой песне:

Страница создана 23.02.2012
http://primanota.ru/sea-of-treachery/purging-of-the-wicked-chords.htm
Привет, Гость.
Предлагаем пройти революционный курс по гитаре.
Подарок от PrimaNota.Ru, забирай!