PrimaNota.ru - самый крупный в мире бесплатный архив песенных текстов, аккордов, табулатур и нот


Sea Of Treachery - Misery Business - таба, видео

Регистрация Запомнить меня
Войти через:  Facebook Google Twitter Vk Yandex Mail.ru

Sea Of Treachery - Misery Business - таба, видео

Печатать
Просмотров: 67
Авторы: Josh Farro, Hayley Williams

MISERY BUSINESS
DROP C#
PLEASE RATE & COMMENT.

PALM MUTE - *
REPEAT - #
BEND - b
PINCH HARMONIC - ^
HAMMER-ON - h


INTRO:
GTR1                                             1st ending     2nd ending
D|----------------------------------------------|-----------|------------------|
A|----------------------------------------------|-----------|------------------|
F|#--------4-6-4-6----------------------4-6-4-6-|----------#|-----------9-9~---|
C|--7-7--7---------6-6--6-6-6--6-7-7--7---------|4-4--4-4-4-|-6h7-7h9-9--------|
G|#---------------------------------------------|----------#|------------------|
C|----------------------------------------------|-----------|------------------|
GTR2                                                                           |
D|----------------------------------------------|-----------|------------------|
A|----------------------------------------------|-----------|------------------|
F|#---------------------------------------------|----------#|------------------|
C|----------------------------------------------|-----------|------------------|
G|#--------2-4-2-4----------------------2-4-2-4-|----------#|-7-7-7-7-6-6-6-6--|
C|--4-4--4---------2-2--2-2-2--2-4-4--4---------|0-0--0-0-0-|-7-7-7-7-6-6-6-6--|




VERSE: 0:12
GTR1 (comes in 2nd time round at 0:23)           1st ending     2nd ending
D|-----------------------------------------------|--------------|------------------------------|
A|--10-7-10-7-10-7--10-7-10-7-10-7---10-7-10-7-10|7-10-10-----7-|-10-7-10-7-10-10-10-10/14-14~-|
F|#----------------------------------------------|--------9-9--#|------------------------------|
C|-----------------------------------------------|--------------|------------------------------| x2
G|#----------------------------------------------|-------------#|------------------------------|
C|-----------------------------------------------|--------------|------------------------------|
GTR2
D|----------------------------------------------|-----------|------------------|
A|----------------------------------------------|-----------|------------------|
F|#---------------------------------------------|----------#|------------------|
C|----------------------------------------------|-----------|------------------| x2
G|#--------2-4-2-4----------------------2-4-2-4-|----------#|-7-7-7-7-6-6-6-6--|
C|--4-4--4---------2-2--2-2-2--2-4-4--4---------|0-0--0-0-0-|-7-7-7-7-6-6-6-6--|
    * *  * * * * * * *  * * *  * * *  * * * * *  * *  * * *   * * * * * * * *



PRECHORUS THINGY 0:34
GTR1
D|-----------------------------------------------|
A|-----------------------------------------------|
F|-----------------------------------------------|
C|-----------------------------------------------|
G|-----------------3^b---------------------------|
C|-----------------------------------------------|
GTR2                                             |
D|-----------------------------------------------|
A|-----------------------------------------------|
F|-----------------------------------------------|
C|-----------4-4-4-2-2-2-2-2---------------------|
G|-4-4-4-4-4-4-4-4-2-2-2-2-2---------------------|
C|-4-4-4-4-4-4-4-4-2-2-2-2-2---------------------|
   * * * *



CHORUS 0:37
GTR1 ( this guitar plays octaves which you can barely
hear, so youre better off to play with GTR2)            
D|-------------------------------------------------|
A|-------------------------------------------------|   
F|-11-11-11-11-14-14-14-14--9--9--9--9-14-14-13-13-|   
C|--x--x--x--x--x--x--x--x--x--x--x--x--x--x--x--x-|  
G|--9--9--9--9-12-12-12-12--7--7--7--7-12-12-11-11-|
C|-------------------------------------------------|     
GTR2                                               | X2
D|-------------------------------------------------|
A|-------------------------------------------------|
F|---------2-2-2-2---------------------------------|
C|-0-0-0-0-2-2-2-2-2-2-2-2-4-4-4-4-----------------|
G|-0-0-0-0-0-0-0-0-2-2-2-2-4-4-4-4-----------------|
C|-0-0-0-0---------2-2-2-2-4-4-4-4-----------------|



POST CHORUS BREAKDOWN 0:48                1ST      2ND
D|---------------------------------------|--------|------------|
A|---------------------------------------|--------|------------|
F|---------------------------------------|--------|------------|
C|---------------------------------------|--------|------------|
G|-0-0--000000-0-0-777777-2-2-222222-2-2-|2////7--|-7-7-7-7-6--|
C|-0-0--000000-0-0-777777-2-2-222222-2-2-|2////7--|-7-7-7-7-6--|
        ******     ******     ******               

                      PLAY INTRO (0'S AT THE END OF IT)

                      PLAY VERSE
   
                      PLAY PRECHORUS THINGY WITH NO HARMONIC

                      PLAY CHORUS AND BREAKDOWN WITH IT.. AND NOW..:

BRIDGE THING 1:52
GTR2
D|--0~-0~--0~-0~--0~-0~---0~--0~----0~-0~--0~-0~--0~-0~---0~--0~-|---|------------------|
A|--0~-0~--5~-0~--0~-0~---0~--0~----0~-0~--5~-0~--0~-0~---0~--0~-|---|------------------|
F|--6~-----6~-----6~------x~--x~----6~-----6~-----6~------x~--x~-|---|----6^DIVE BOMB---|
C|--7~-----4~-----7~------4~--2~----7~-----4~-----7~------4~--6~-|-x2|------------------|
G|--5~-----0~-----5~------5~--4~----5~-----0~-----5~------5~--7~-|---|------------------|
C|--0~------------0~------4~--2~----0~------------0~------4~--6~-|---|------------------|



SOLO 2:14
GTR1
D|-----------------------------------------------------------------------------------------------|
A|-----------------------------------------------------------------------------------------------|
F|-9/11-11-11-11-11-11-11-11\14-11-11-11-11-11-11-9/11-11-11-11-11-11-11-19-19-19-19-18-18-18-18-|
C|-x-x--x--x--x--x--x--x--x--x--x--x--x--x--x--x--x-x--x--x--x--x--x--x--x--x--x--x--x--x--x--x--|
G|-7/9--9--9--9--9--9--9--9-\12-9--9--9--9--9--9--7/9--9--9--9--9--9--9--17-17-17-17-16-16-16-16-|
C|-----------------------------------------------------------------------------------------------|
GTR2                                               | X2
D|-------------------------------------------------|
A|-------------------------------------------------|
F|---------2-2-2-2---------------------------------|
C|-0-0-0-0-2-2-2-2-2-2-2-2-4-4-4-4-----------------|
G|-0-0-0-0-0-0-0-0-2-2-2-2-4-4-4-4-----------------|
C|-0-0-0-0---------2-2-2-2-4-4-4-4-----------------|...

GTR1
D|------------------------------------------17-17-17-17-19-19-21--16-16-16-16-16//-|
A|-17-----15-----14-----12-----17-----19-------------------------------------------|
F|--x(x8)--x(x8)--x(x8)--x(x8)--x(x8)--x(x8)---------------------------------------|
C|-14-----12-----11-----9------14-----16-------------------------------------------|
G|---------------------------------------------------------------------------------|
C|---------------------------------------------------------------------------------|
GTR2                                                       1st ending 2nd ending |
D|--------------------------------------------------------|----------|-----------|
A|--------------------------------------------------------|----------|-----------|
F|#-------------------------------------------------------|----------|-----------|
C|--------------------------------------------------------|----------|-----------|
G|#0-0-0-0-0-0-0-0-0-0-0-0-4-4-4-4-4-2-2-2-2-2-2-2-2-2-2-2|-4-4-4-4--|-7-7-7-7-6-|
C|-0-0-0-0-0-0-0-0-0-0-0-0-4-4-4-4-2-2-2-2-2-2-2-2-2-2-2-2|-4-4-4-4--|-7-7-7-7-6-|



WOOH, I NEVER MEANT TO BRAAAAG;.....
D|---------
A|---------
F|--9^B----cant make out.
C|---------Too much bend
G|---------
C|---------

                          PLAY CHORUS


LAST BREAKDOWN 2:53
D|-----------------------------------------------|
A|-----------------------------------------------|
F|-----------------------------------------------|
C|------------------------------------------3^b--|
G|-0-0--000000-0-0-777777-2-2-222222-2-2---------|
C|-0-0--000000-0-0-777777-2-2-222222-2-2---------|..
|       ******     ******     ******
D|-------------------------------------------------|
A|-------------------------------------------------|
F|-------------------------------------------------|
C|-------------------------------------------------|
G|-0~0~-000000~0~0~777777~2~2~222222~7~7~7~7~6~----|
C|-0~0~-000000~0~0~777777~2~2~222222~7~7~7~7~6~----|
        ******     ******     ******   

                         PLAY INTRO

D|--------------|
A|--------------|
F|-6^-6^-6^-6^--|
C|--------------|
G|--------------|
C|--------------|
Добавлено: 06.07.2013
Другие материалы по этой песне:

Страница создана 06.07.2013
http://primanota.ru/sea-of-treachery/misery-business-chords.htm
Привет, Гость.
Предлагаем пройти революционный курс по гитаре.
Подарок от PrimaNota.Ru, забирай!