PrimaNota.ru - самый крупный в мире бесплатный архив песенных текстов, аккордов, табулатур и нот


Sea Of Bees - Take - аккорды и текст, видео

Регистрация Запомнить меня
Войти через:  Facebook Google Twitter Vk Yandex Mail.ru

Sea Of Bees - Take - аккорды и текст, видео

Печатать
Просмотров: 360
Take
Sea Of Bees
-------------------------------------------------------------------------------
                                  TAKE - Sea of Bees
-------------------------------------------------------------------------------

Tabbed by: rommyusa (with thanks to njaffe3)
E-mail: rommyusa@gmail.com

Capo on 5

************************************

Intro: 
G Em C G D (x2)

G                  Em    
Take, take what you want
            Cadd9
I'll be your fire
     G        D
I'll burn for you
G                           Em  
Break, I'll stroke down your back
            Cadd9
Make you feel power
     G    D
I'll feel too   


Am                   Em
   I cannot part the seas
       F         D
And in that I am free, oh
G                    Em
   You don't have to know
     F              D
Just be the way you want to feel
G                    Em
   You can make your world
         F          D
What you want it to be


G Em F D 


    G                              Em
And warmth, you're not just skin and bones
                         Cadd9
There's something deep inside
         G             D
What you speak comes alive
    G                      Em
And know, know that I'm around
                Cadd9
I'm going to be new
      G   D
I can see clear


Am                   Em
   I cannot part the seas
       F         D
And in that I am free, oh
G                    Em
   You don't have to know
     F              D
Just be the way you want to feel, oh
G                    Em
   You can make your world
         F          D
What you want it to be


     F                  Am
I'll tell you, tell you what I want now
          Em             G
Fires and springs in the fields
     F            Am           
I'll walk by your side 
       Em             G
in the night we are alive
      Dm  G 
I can see it,
      Dm  G 
I can see it

C




  Cadd9
e|-(3)----------------------------------------------------------------------|
B|--3-----------------------------------------------------------------------|
G|--------------------------------------------------------------------------|
D|--2-----------------------------------------------------------------------|
A|--3-----------------------------------------------------------------------|
E|--------------------------------------------------------------------------|

Добавлено: 26.08.2013
Другие материалы по этой песне:
  • Аккорды и текст

Страница создана 26.08.2013
http://primanota.ru/sea-of-bees/take-chords.htm
Привет, Гость.
Предлагаем пройти революционный курс по гитаре.
Подарок от PrimaNota.Ru, забирай!