PrimaNota.ru - самый крупный в мире бесплатный архив песенных текстов, аккордов, табулатур и нот


Sea Hags - Under The Night Stars - бас-таба, видео

Регистрация Запомнить меня
Войти через:  Facebook Google Twitter Vk Yandex Mail.ru

Sea Hags - Under The Night Stars - бас-таба, видео

Печатать
Просмотров: 114
Уроки эстрадного вокала в Санкт-Петербурге
-------------------------------------------------------------------------------
                  Under The Night Stars - Sea Hags
-------------------------------------------------------------------------------

Tabbed by: ChrisT

Fromt the album: Sea Hags(1989)

Tuning: Eb Ab Db Gb

Intro (fade in)                                                        Repeat x2
Gb|-------------------------------------------|---------------------------------|
Db|-------------------------------------------|o-------------------------------o|
Ab|------7-7-----7-7-----7-7-----7-7-----7-7--|o------7-------5----------------o|
Eb|--0-0-----0-0-----0-0-----0-0-----0-0------|---5-7-----5-7-----5-6-7-5-3-2---|

Verse 1                                                        Repeat x4
Gb|------------------------------------|--------------------------------|
Db|o-----------------------------------|-------------------------------o|
Ab|o-----------------------------------|------7-------5----------------o|
Eb|---0-0-0-0-0-0-0-0-0-0-0-0-0-0-0-0--|--5-7-----5-7-----5-6-7-5-3-2---|

Gb|-----------------------------------|------------------------------------|
Db|-----------------------------------|--------------------7/11-11-12-14---|
Ab|-----------------------------------|------------------------------------|
Eb|--3-3-3-3-3-3-3-3-3-3-3-3-3-3-3-3--|--5-5-5-5-5-5-5-5-5-----------------|

Gb|-------------------------------|---------------------|
Db|-------------------------------|---------------------|
Ab|------7-------5----------------|------7-------7------|
Eb|--5-7-----5-7-----5-6-7-5-3-2--|--5-7-----5-7--------|

Verse 2                                                        Repeat x4
Gb|------------------------------------|--------------------------------|
Db|o-----------------------------------|-------------------------------o|
Ab|o-----------------------------------|-------7-------5---------------o|
Eb|---0-0-0-0-0-0-0-0-0-0-0-0-0-0-0-0--|--5-7-----5-7-----5-6-7-5-3-2---|

Gb|------------------------------------|----------------------------------|
Db|------------------------------------|------------------7/11-11-12-14---|
Ab|------------------------------------|----------------------------------|
Eb|---3-3-3-3-3-3-3-3-3-3-3-3-3-3-3-3--|--5-5-5-5-5-5-5-5-----------------|

                  Repeat x3 Last section not 3rd time
Gb|--------------------|-----------------------------|-----------------|
Db|o-------------------|----------------------------o|-----------------|
Ab|o-------------------|----------------------------o|-----------------|
Eb|---3-3-2-2-2-0-0-0--|--0-0-0-0-2-2-2-3/15-14-12---|--3-3-0---3-3-0--|

Guitar solo                                                    Repeat x4
Gb|------------------------------------|--------------------------------|
Db|o-----------------------------------|-------------------------------o|
Ab|o-----------------------------------|-------7-------5---------------o|
Eb|---0-0-0-0-0-0-0-0-0-0-0-0-0-0-0-0--|--5-7-----5-7-----5-6-7-5-3-2---|

Chorus
Gb|------------------------------------|----------------------------------|
Db|------------------------------------|------------------7/11-11-12-14---|
Ab|------------------------------------|----------------------------------|
Eb|---3-3-3-3-3-3-3-3-3-3-3-3-3-3-3-3--|--5-5-5-5-5-5-5-5-----------------|

                   Repeat x2 Last section 1st time only
Gb|------------------------------------|---------------|----------|
Db|o-----------------------------------|--------------o|----------|
Ab|o-----------------------------------|--------------o|----------|
Eb|---3-3-2-2-2-0-0-0---0-0-0-0-2-2-2--|--3/15-14-12---|--3-3-3---|

Outro                      Repeat x8                      Repeat x2
Gb|---------------------------------|------------------------------|
Db|o-------------------------------o|o----------------------------o|
Ab|o-------------------------------o|o----------------------------o|
Eb|---0-0-0---0-0---0-7-7-5-5-3-3---|---0-0-0-0-2-2-2-3/15-14-12---|

                           Repeat x2 Faster
Gb|---------------------------------|-----------------------------------|
Db|o-------------------------------o|-----------------------------------|
Ab|o-------------------------------o|-----------------------------------|
Eb|---0-0-0---0-0---0-7-7-5-5-3-3---|--5h7---7-7---7-7-5h7---7-7---7-7--|

Gb|--------------------------------------------------|
Db|--------------------------------------------------|
Ab|--------------------------------------------------|
Eb|--7p5---5-5---5-5-7p5---5-5---5-5-3-0---0-0-0-0---|


| /  slide up
| \  slide down
| h  hammer-on
| p  pull-off
| ~  vibrato
| +  harmonic
| x  Mute note

===============================================================================

Please rate or comment.....
Добавлено: 23.06.2013
Другие материалы по этой песне:
  • Аккорды и текст

Страница создана 23.06.2013
http://primanota.ru/sea-hags/under-the-night-stars-chords.htm
Привет, Гость.
Предлагаем пройти революционный курс по гитаре.
Подарок от PrimaNota.Ru, забирай!