PrimaNota.ru - самый крупный в мире бесплатный архив песенных текстов, аккордов, табулатур и нот


Sea Hags - Threes A Charm - бас-таба, видео

Регистрация Запомнить меня
Войти через:  Facebook Google Twitter Vk Yandex Mail.ru

Sea Hags - Threes A Charm - бас-таба, видео

Печатать
Просмотров: 112
Уроки эстрадного вокала в Санкт-Петербурге
-------------------------------------------------------------------------------
                          Three's A Charm - Sea Hags
-------------------------------------------------------------------------------

From the Album: Sea Hags (1989)

Tabbed by: ChrisT 

Tuning: Eb Ab Db Gb

Verse 1     Repeat x12
Gb|-------------------|
Db|o-----------------o|
Ab|o--2---2-2-0-2-3--o|
Eb|-------------------|

Chorus                                                             Repeat x2
Gb|-----------------------------------|-------------------------------------|
Db|-----------------------------------|o-----------------------------------o|
Ab|------------------5-5-5-5-5-5-5-5--|o--2---4---5-6-7----2---4---5-6-7---o|
Eb|--0-0-0-0-0-0-0-0------------------|-------------------------------------|

Verse 2      Repeat x8
Gb|-------------------|
Db|o-----------------o|
Ab|o--2---2-2-0-2-3--o|
Eb|-------------------|

Chorus                                                            Repeat x2
Gb|-----------------------------------|------------------------------------|
Db|-----------------------------------|o----------------------------------o|
Ab|------------------5-5-5-5-5-5-5-5--|o--2---4---5-6-7----2---4---5-6-7--o|
Eb|--0-0-0-0-0-0-0-0------------------|------------------------------------|

                                     Repeat x4
Gb|-----------------------|-------------------|---------------------|
Db|-----------------------|o-----------------o|----------5----5-----|
Ab|------------------5-5--|o--5-5-6---7-7-7--o|--7-7-7-7----7----7--|
Eb|--0-0-0-0-0-0-0-0------|-------------------|---------------------|

             Repeat 4x           Repeat x4           Repeat x3
Gb|-------------------|-------------------|-------------------|
Db|o-----------------o|o-----------------o|o-----------------o|
Ab|o--4/5-5-5-5-5-5--o|o--2---2-2-0-2-3--o|o--4/5-5-5-5-5-5--o|
Eb|-------------------|-------------------|-------------------|

Gb|-------------------------------------------------------|
Db|---------------------------------------------------.---|
Ab|--/9-9-9-------2---0-0-0-0-2---0-0-0-0-2---0-0-0-0-2---|
Eb|---------5-5-5-----------------------------------------|

Verse 3     Repeat x16
Gb|-------------------|
Db|o-----------------o|
Ab|o--2---2-2-0-2-3--o|
Eb|-------------------|

Chorus                                                            Repeat x2
Gb|-----------------------------------|------------------------------------|
Db|-----------------------------------|o----------------------------------o|
Ab|------------------5-5-5-5-5-5-5-5--|o--2---4---5-6-7----2---4---5-6-7--o|
Eb|--0-0-0-0-0-0-0-0------------------|------------------------------------|

                                     Repeat x4
Gb|-----------------------|-------------------|---------|
Db|-----------------------|o-----------------o|---------|
Ab|------------------5-5--|o--5-5-6---7-7-7--o|--7-7-7--|
Eb|--0-0-0-0-0-0-0-0------|-------------------|---------|

                         Repeat x3
Gb|-------------------------------|--------------------|
Db|o----5----5-------------------o|--------------------|
Ab|o--7----7----7-5-5-5-5-5-5-5--o|-/9-9-9----------2--|
Eb|-------------------------------|--------5--5--5-----|


A classic track from the one album wonders that were the Sea Hags
===============================================================================
http://www.myspace.com/theseahags
http://en.wikipedia.org/wiki/Sea_Hags

Please rate or comment.....
Добавлено: 28.08.2013
Вам также может быть интересно:
Другие материалы по этой песне:
  • Аккорды и текст

Страница создана 28.08.2013
http://primanota.ru/sea-hags/threes-a-charm-chords.htm
Привет, Гость.
Предлагаем пройти революционный курс по гитаре.
Подарок от PrimaNota.Ru, забирай!