PrimaNota.ru - самый крупный в мире бесплатный архив песенных текстов, аккордов, табулатур и нот


Sea Hags - Someday - бас-таба, видео

Регистрация Запомнить меня
Войти через:  Facebook Google Twitter Vk Yandex Mail.ru

Sea Hags - Someday - бас-таба, видео

Печатать
Просмотров: 63
Авторы музыки: Brian Marnell
Авторы текста: Brian Marnell
-------------------------------------------------------------------------------
                         Someday - Sea Hags
-------------------------------------------------------------------------------

Tabbed by: ChrisT 

Tuning: Eb Ab Db Gb
Can be played standard tuning - left it ½ step down as rest of album is.

Intro
Gb|---------------------------------------------------------------------------|
Db|---------------------------------------------------------------------------|
Ab|---1---3-3-3---3-3-3---3-3-3---3-3-3---3-3-3---3-3-3---3-3-3---3---1-------|
Eb|-----------------------------------------------------------------------3---|

Gb|-----------------------------------------------------------------------|
Db|-----------------------------------------------------------1-----------|
Ab|-------------------------1-------1---3-3---3-3-3---3-3-3-------1-------|
Eb|---1-1---1-1-1---1-1-1-------1-------------------------------------3---|

Gb|--------------------------------|-------------------------------|
Db|--------------------------------|o-----------------------------o|
Ab|-------------------------1------|o-----------------------------o|
Eb|---1-1---1-1-1---1-1-1-------1--|---3-3---3-3-3---1-1---1-1-1---|

Verse 1                   Repeat x8
Gb|--------------------------------|
Db|o------------------------------o|
Ab|o------------------------------o|
Eb|---3-3---3-3-3---1-1---1-1-1----|

Chorus
Gb|-----------------------------------------------------------------------|
Db|-----------------------------------------------------------------------|
Ab|---1---3-3-3---3-3-3---3-3-3---3-3-3---3-3-3---3-3-3---3-3-3---3-3-3---|
Eb|-----------------------------------------------------------------------|

Gb|-------------------------------------------------------------------|
Db|-------------------------------------------------------------------|
Ab|-------------------------------------------------------------------|
Eb|---3-1-1---1-1-1---1-1-1---1-1-1---1-1-1---1-1-1---1-1-1---1-1-1---|

Gb|-----------------------------------------------------------------------------|
Db|-----------------------------------------------------------------------------|
Ab|---1---3-3-3---3-3-3---3-3-3---3---1-----------------------------1-------1---|
Eb|---------------------------------------3---1-1---1-1-1---1-1-1-------1-------|

Gb|------------------------------------------------------------------|
Db|-------------------------1----------------------------------------|
Ab|---3-3---3-3-3---3-3-3-------1-----------------------------1------|
Eb|---------------------------------3---1-1---1-1-1---1-1-1-------1--|

Gb|--------------------------------|
Db|o------------------------------o|
Ab|o------------------------------o|
Eb|---3-3---3-3-3---1-1---1-1-1----|

Verse 2                   Repeat x8
Gb|--------------------------------|
Db|o------------------------------o|
Ab|o------------------------------o|
Eb|---3-3---3-3-3---1-1---1-1-1----|

Chorus
Gb|-----------------------------------------------------------------------|
Db|-----------------------------------------------------------------------|
Ab|---1---3-3-3---3-3-3---3-3-3---3-3-3---3-3-3---3-3-3---3-3-3---3-3-3---|
Eb|-----------------------------------------------------------------------|

Gb|-------------------------------------------------------------------|
Db|-------------------------------------------------------------------|
Ab|-------------------------------------------------------------------|
Eb|---3-1-1---1-1-1---1-1-1---1-1-1---1-1-1---1-1-1---1-1-1---1-1-1---|

Gb|-------------------------------------------------------------------------|
Db|-------------------------------------------------------------------------|
Ab|---1---3-3-3---3-3-3---3-3-3---3---1-----------------------------1-------|
Eb|---------------------------------------3---1-1---1-1-1---1-1-1-------1---|

Gb|-----------------------------------------------------------------------|
Db|o----------------------------1----------------------------------------o|
Ab|o--1---3-3---3-3-3---3-3-3-------1-----------------------------1------o|
Eb|-------------------------------------3---1-1---1-1-1---1-1-1-------1---|

Gb|--------------------------------|
Db|o------------------------------o|
Ab|o------------------------------o|
Eb|---3-3---3-3-3---1-1---1-1-1----|

Guitar solo               Repeat x6
Gb|--------------------------------|
Db|o------------------------------o|
Ab|o------------------------------o|
Eb|---3-3---3-3-3---1-1---1-1-1----|

Bridge                    Repeat x8
Gb|--------------------------------|
Db|o------------------------------o|
Ab|o------------------------------o|
Eb|---3-3---3-3-3---1-1---1-1-1----|

Chorus
Gb|-----------------------------------------------------------------------|
Db|-----------------------------------------------------------------------|
Ab|---1---3-3-3---3-3-3---3-3-3---3-3-3---3-3-3---3-3-3---3-3-3---3-3-3---|
Eb|-----------------------------------------------------------------------|

Gb|-------------------------------------------------------------------|
Db|-------------------------------------------------------------------|
Ab|-------------------------------------------------------------------|
Eb|---3-1-1---1-1-1---1-1-1---1-1-1---1-1-1---1-1-1---1-1-1---1-1-1---|

Gb|-------------------------------------------------------------------------|
Db|-------------------------------------------------------------------------|
Ab|---1---3-3-3---3-3-3---3-3-3---3---1-----------------------------1-------|
Eb|---------------------------------------3---1-1---1-1-1---1-1-1-------1---|

Outro                                                     Repeat until end
Gb|-----------------------------------------------------------------------|
Db|o----------------------------1----------------------------------------o|
Ab|o--1---3-3---3-3-3---3-3-3-------1-----------------------------1------o|
Eb|-------------------------------------3---1-1---1-1-1---1-1-1-------1---|



| /  slide up
| \  slide down
| h  hammer-on
| p  pull-off
| ~  vibrato
| +  harmonic
| x  Mute note
===============================================================================
Добавлено: 18.09.2013
Другие материалы по этой песне:
  • Аккорды и текст

Страница создана 18.09.2013
http://primanota.ru/sea-hags/someday-chords.htm
Привет, Гость.
Предлагаем пройти революционный курс по гитаре.
Подарок от PrimaNota.Ru, забирай!