PrimaNota.ru - самый крупный в мире бесплатный архив песенных текстов, аккордов, табулатур и нот


Sea Hags - Doghouse - бас-таба, видео

Регистрация Запомнить меня
Войти через:  Facebook Google Twitter Vk Yandex Mail.ru

Sea Hags - Doghouse - бас-таба, видео

Печатать
Просмотров: 104
Уроки эстрадного вокала в Санкт-Петербурге
-------------------------------------------------------------------------------
                            Doghouse - Sea Hags
-------------------------------------------------------------------------------

Tabbed by: ChrisT

From the album: Sea Hags (1989)

Tuning: Eb Ab Db Gb

Verse 1                                                              Repeat x6
Gb|---------------------------------------------------------------------------|
Db|o-------------------------------------------------------------------------o|
Ab|o--5---5-5---8---8-8---7-8-7-5---5-5---3---3-3---2---2-2---1-2-1-0---0-0--o|
Eb|---------------------------------------------------------------------------|

   4th and 6th time play
Gb|-------------------------------------------------------------------------|
Db|----------------------5-4-5----------------------------------------------|
Ab|--5---5-5---8---8-8---------5---5-5---3---3-3---2---2-2---1-2-1-0---0-0--|
Eb|-------------------------------------------------------------------------|

Chorus                                     Repeat x2 Last section not 2nd time
Gb|------------------------------------------|--------------------5-----------|
Db|o-----------------------------------------|----------------5-7-----7-5----o|
Ab|o-----------------------------------------|--5---5-5---5-8-------------8--o|
Eb|---3---3-3---3---3-3---1---1-1---0---0-0--|--------------------------------|

Verse 2                                                              Repeat x5
Gb|---------------------------------------------------------------------------|
Db|o-------------------------------------------------------------------------o|
Ab|o--5---5-5---8---8-8---7-8-7-5---5-5---3---3-3---2---2-2---1-2-1-0---0-0--o|
Eb|---------------------------------------------------------------------------|

   3rd time play
Gb|-------------------------------------------------------------------------|
Db|----------------------5-4-5----------------------------------------------|
Ab|--5---5-5---8---8-8---------5---5-5---3---3-3---2---2-2---1-2-1-0---0-0--|
Eb|-------------------------------------------------------------------------|

Chorus                                     Repeat x4 Last section not 4th time
Gb|------------------------------------------|--------------------5-----------|
Db|o-----------------------------------------|----------------5-7-----7-5----o|
Ab|o-----------------------------------------|--5---5-5---5-8-------------8--o|
Eb|---3---3-3---3---3-3---1---1-1---0---0-0--|--------------------------------|

   2nd time play
Gb|-----------------------------------------|--------------------5-----5-7--|
Db|-----------------------------------------|----------------5-7-----7------|
Ab|-----------------------------------------|--5---5-5---5-8----------------|
Eb|--3---3-3---3---3-3---1---1-1---0---0-0--|-------------------------------|

Guitar solo                                                          Repeat x3
Gb|---------------------------------------------------------------------------|
Db|o-------------------------------------------------------------------------o|
Ab|o--5---5-5---8---8-8---7-8-7-5---5-5---3---3-3---2---2-2---1-2-1-0---0-0--o|
Eb|---------------------------------------------------------------------------|

Verse 3                                                              Repeat x5
Gb|---------------------------------------------------------------------------|
Db|o-------------------------------------------------------------------------o|
Ab|o--5---5-5---8---8-8---7-8-7-5---5-5---3---3-3---2---2-2---1-2-1-0---0-0--o|
Eb|---------------------------------------------------------------------------|

   2nd and 4th time play
Gb|-------------------------------------------------------------------------|
Db|----------------------5-4-5----------------------------------------------|
Ab|--5---5-5---8---8-8---------5---5-5---3---3-3---2---2-2---1-2-1-0---0-0--|
Eb|-------------------------------------------------------------------------|

Chorus                                     Repeat x4 Last section not 4th time
Gb|------------------------------------------|--------------------5-----------|
Db|o-----------------------------------------|----------------5-7-----7-5----o|
Ab|o-----------------------------------------|--5---5-5---5-8-------------8--o|
Eb|---3---3-3---3---3-3---1---1-1---0---0-0--|--------------------------------|

   2nd time play
Gb|-----------------------------------------|--------------------5-----5-7--|
Db|-----------------------------------------|----------------5-7-----7------|
Ab|-----------------------------------------|--5---5-5---5-8----------------|
Eb|--3---3-3---3---3-3---1---1-1---0---0-0--|-------------------------------|


Gb|---------------------------------------------------------------------------|
Db|o-------------------------------------------------------------------------o|
Ab|o--5---5-5---8---8-8---7-8-7-5---5-5---3---3-3---2---2-2---1-2-1-0---0-0--o|
Eb|---------------------------------------------------------------------------|

Outro 
Gb|-----------------------------------------|-----------------------------|
Db|-----------------------------------------|o--------------------3-3-3--o|
Ab|-----------------------------------------|o--5-5-5-3-3-3-5-5-5--------o|
Eb|--3---3-3---3---3-3---1---1-1---0---0-0--|-----------------------------|

                                                                 Repeat x6
Gb|-----------------------------------------|-----------------------------|
Db|-----------------------------------------|o--------------------3-3-3--o|
Ab|-----------------------------------------|o--5-5-5-3-3-3-5-5-5--------o|
Eb|--3---3-3---3---3-3---1---1-1---0---0-0--|-----------------------------|

Gb|-----------------------------------------------------------------------|
Db|--5-------5-------5-------5------5--------5-5-5-7/12-------5-5-5-7/12--|
Ab|-----------------------------------------------------------------------|
Eb|----3-3-3---3-3-3---3-3-3---3-3-3---3-3-3------------3-3-3-------------|

Gb|------------------------------------------------|
Db|--------5-------5-------------------------------|
Ab|------------------------------------5-----------|
Eb|--3-3-3---3-3-3---1---1-----0---0---------------|

===============================================================================

Please rate or comment.....
Добавлено: 04.08.2013
Другие материалы по этой песне:
  • Аккорды и текст

Страница создана 04.08.2013
http://primanota.ru/sea-hags/doghouse-chords.htm
Привет, Гость.
Предлагаем пройти революционный курс по гитаре.
Подарок от PrimaNota.Ru, забирай!