PrimaNota.ru - самый крупный в мире бесплатный архив песенных текстов, аккордов, табулатур и нот


Sea Hags - Bunkbed Creek - бас-таба, видео

Регистрация Запомнить меня
Войти через:  Facebook Google Twitter Vk Yandex Mail.ru

Sea Hags - Bunkbed Creek - бас-таба, видео

Печатать
Просмотров: 82
-------------------------------------------------------------------------------
                             Bunkbed Creek - Sea Hags
-------------------------------------------------------------------------------

Tabbed by: ChrisT

Tuning: Eb Ab Db Gb

                                   Repeat x16
Gb|------------------------------------------|
Db|o----------------------------------------o|
Ab|o--7-----5---------7-----7-----------5---o|
Eb|-----5-7-----0-3-----5-7-----5---5-7------|

6th time play this instead
Gb|-----------------------------------------|
Db|-----------------------------/17-16------|
Ab|---7-----5---------7-----7---------------|
Eb|-----5-7-----0-3-----5-7-----------------|


| /  slide up
| \  slide down

===============================================================================
Добавлено: 09.10.2013
Другие материалы по этой песне:
  • Аккорды и текст

Страница создана 09.10.2013
http://primanota.ru/sea-hags/bunkbed-creek-chords.htm
Привет, Гость.
Предлагаем пройти революционный курс по гитаре.
Подарок от PrimaNota.Ru, забирай!