PrimaNota.ru - самый крупный в мире бесплатный архив песенных текстов, аккордов, табулатур и нот


The Sea-ders - I Dont Know Why - бас-таба, видео

Регистрация Запомнить меня
Войти через:  Facebook Google Twitter Vk Yandex Mail.ru

The Sea-ders - I Dont Know Why - бас-таба, видео

Печатать
Просмотров: 43
Tabbed by: 6METAL6BASSIST6
E-mail: petergriffinav@gmail.com

Tuning: EADG

0:03

G|--------|
D|7-/-\---|
A|--------|
E|--------|

G|----------------------------------------------------------------|
D|7---7-------7---7---------------7---7-------7---7-------7-/-\---|
A|----------------------------7-----------------------------------|
E|----------------------------------------------------------------|

0:09

G|----------------------------------------------------------------|
D|7---7-------7---7---------------7---7-------7---7---------------|
A|----------------------------7-------------------------------7---|
E|----------------------------------------------------------------|

G|----------------------------------------------------------------|
D|7-----------7---7---------------7-----------7---7---------------| x2
A|----------------------------7-------------------------------7---|
E|----------------------------------------------------------------|

G|----------------------------------------------------6---9---6---|
D|7-----------7---7---------------7-----------7---9---------------|
A|----------------------------7-----------------------------------|
E|----------------------------------------------------------------|

0:26

G|7-----------7---7---------------7-----------7-/-9---7---6-------|
D|----------------------------7-------------------------------9---|
A|----------------------------------------------------------------|
E|----------------------------------------------------------------|

G|----------------------------------------------------------------|
D|7---7-------7-------------------7---7-------7---7---7---7---7---|
A|----------------7-----------9-----------------------------------|
E|----------------------------------------------------------------|

G|----------------------------------------------------------------|
D|10------------------------------10------------------------------|
A|----------------------------------------------------------------|
E|----------------------------------------------------------------|

G|------------------------------------------------------------6---|
D|9-------------------------------7-----------7---7---7---9-------|
A|----------------------------------------------------------------|
E|----------------------------------------------------------------|

0:43

G|----------------------------------------------------------------|
D|--------------------------------5---5---5---5---5---5---5---5---|
A|5---5---5---5---5---5---5---5-----------------------------------|
E|----------------------------------------------------------------|

G|----------------------------------------------------------------|
D|--------------------------------7---7---7---7---7---7---7---7---|
A|5---5---5---5---5---5---5---5-----------------------------------|
E|----------------------------------------------------------------|

G|----------------------------------------------------------------|
D|--------------------------------5---5---5---5---5---5---5---5---|
A|5---5---5---5---5---5---5---5-----------------------------------|
E|----------------------------------------------------------------|

G|----------------------------------------------------------------|
D|--------------------------------------------9-------6-----------|
A|5---5---5---5---5---5---5---5---7---------------------------7---|
E|----------------------------------------------------------------|

1:00

G|----------------------------------------------------------------|
D|7-----------7---7---------------7---7-------7---7---------------|
A|----------------------------7-------------------------------7---|
E|----------------------------------------------------------------|

G|----------------------------------------------------------------|
D|7-----------7---7---------------7-----------7---7---------------| x2
A|----------------------------7-------------------------------7---|
E|----------------------------------------------------------------|

G|----------------------------------------------------6---9---6---|
D|7-----------7---7---------------7-----------7---9---------------|
A|----------------------------7-----------------------------------|
E|----------------------------------------------------------------|

1:18

G|7-----------7-------------------7-----------7---9---7---6-------|
D|----------------7-----------9-------------------------------9---|
A|----------------------------------------------------------------|
E|----------------------------------------------------------------|

G|----------------------------------------------------------------|
D|7---7-------7-------------------7---7-------7---7---7---7---7---|
A|----------------7-----------9-----------------------------------|
E|----------------------------------------------------------------|

G|----------------------------------------------------------------|
D|10------------------------------10------------------------------|
A|----------------------------------------------------------------|
E|----------------------------------------------------------------|

G|------------------------------------------------------------6---|
D|9-------------------------------7-----------7---7---7---9-------|
A|----------------------------------------------------------------|
E|----------------------------------------------------------------|

1:36

G|----------------------------------------------------------------|
D|--------------------------------5---5---5---5---5---5---5---5---|
A|5---5---5---5---5---5---5---5-----------------------------------|
E|----------------------------------------------------------------|

G|----------------------------------------------------------------|
D|--------------------------------7---7---7---7---7---7---7---7---|
A|5---5---5---5---5---5---5---5-----------------------------------|
E|----------------------------------------------------------------|

G|----------------------------------------------------------------|
D|--------------------------------5---5---5---5---5---5---5---5---|
A|5---5---5---5---5---5---5---5-----------------------------------|
E|----------------------------------------------------------------|

G|----------------------------------------------------------------|
D|--------------------------------------------9-------6-----------|
A|5---5---5---5---5---5---5---5---7---------------------------7---|
E|----------------------------------------------------------------|

1:53

G|----------------------------------------------------------------|
D|7-----------7---7---------------7---7-------7---7---------------|
A|----------------------------7-------------------------------7---|
E|----------------------------------------------------------------|

G|----------------------------------------------------------------|
D|7---7-------7---7---------------7---7-------7---7---------------| x2 to fadeout.
A|----------------------------7-------------------------------7---|
E|----------------------------------------------------------------|
Добавлено: 11.06.2016
Другие материалы по этой песне:
  • Аккорды и текст

Страница создана 11.06.2016
http://primanota.ru/sea-ders/i-dont-know-why-chords.htm
Привет, Гость.
Предлагаем пройти революционный курс по гитаре.
Подарок от PrimaNota.Ru, забирай!