PrimaNota.ru - самый крупный в мире бесплатный архив песенных текстов, аккордов, табулатур и нот


Sea And Cake - An Assasin - таба, видео

Регистрация Запомнить меня
Войти через:  Facebook Google Twitter Vk Yandex Mail.ru

Sea And Cake - An Assasin - таба, видео

Печатать
Просмотров: 59
-------------------------------------------------------------------------------
                             An Assasin - Sea & Cake
-------------------------------------------------------------------------------
Tabbed by: David K.
E-mail: thischarmingman13 @ gmail.com

Tuning: Standard

e|----------------------------------------------------------------------------|
B|------------------------------------8-7-------------------------------------|
G|-9-99---9-99----9-99-------------7------------------------------------------|
D|-9-99---9-99----9-99---------7--9-------------------------------------------|
A|-7-77---7-77----7-77--7-9-10------------------------------------------------|
E|-8-88---8-88----8-88--------------------------------------------------------|

  (Part A)                                           (Part B)
e|-777---------------------777-----------------------------------------------|
B|-----888---------7-----------888---------7x7-------------------------------|
G|---------999-777---7-------------999-777-----7-------------------7-9-11----|
D|---------------------9-------------------------9----------7-8-10-----------|
A|---------------------------------------------------7-8-10------------------|
E|---------------------------------------------------------------------------|
                         (C)
e|----------10~----------777-------------------------------------------------|
B|-8-10-12-----12~-----------888----------7----------------------------------|
G|----------------11~------------999-777----7--------------------------------|
D|--------------------------------------------9------------------------------|
A|---------------------------------------------------------------------------|
E|---------------------------------------------------------------------------|

Part A starts at 1:13. For the ending starting at 2:26, you do a variation of the above,
playing part B twice starting at 2:38. Then you do part C (half of part A) and then end
with part B once again. It's pretty simply, but that might not have been the best way to 
explain it. If you have any questions, let me know. Thanks!


************************************

| /   slide up
| \   slide down
| h   hammer-on
| p   pull-off
| ~   vibrato
| +   harmonic
| x   Mute note
| b   Bend
| pb  Pre-bend
| br  Bend release
| pbr Pre-bend release
| brb Bend release bend

************************************
Добавлено: 13.11.2013
Другие материалы по этой песне:
  • Аккорды и текст

Страница создана 13.11.2013
http://primanota.ru/sea-and-cake/an-assasin-chords.htm
Привет, Гость.
Предлагаем пройти революционный курс по гитаре.
Подарок от PrimaNota.Ru, забирай!