PrimaNota.ru - самый крупный в мире бесплатный архив песенных текстов, аккордов, табулатур и нот


Screeching Weasel - First Day Of Autumn - бас-таба, видео

Регистрация Запомнить меня
Войти через:  Facebook Google Twitter Vk Yandex Mail.ru

Screeching Weasel - First Day Of Autumn - бас-таба, видео

Печатать
Просмотров: 99
Уроки эстрадного вокала в Санкт-Петербурге
As recorded by Screeching Weasel
                    (From the 2000 Album TEEN PUNKS IN HEAT)

Transcribed by Travis Nutt

 4/4
  Gtr I
  Wx4            Q  E E E E E E   Q  E E E E E E
|------------||-----------------|----------------|
|------------||o----------------|----------------|
|------------||o-5--5-5-5-5-5-5-|----------------|
|------------||-----------------|-5--5-5-5-5-5-5-|


  Q  E E E E E E   Q  E E E E E E
|----------------|------------------|
|----------------|------------------|
|-5--5-5-5-5-5-5-|------------------|
|----------------|-5--5-5-5-5-5-5---|


                                                    1.
  Q  E E E E E E   Q  E E E E E E   Q  E E E E E E   E E E E Q  Q
|----------------|----------------|----------------|----------------||
|----------------|----------------|----------------|---------------o||
|----------------|----------------|-5--5-5-5-5-5-5-|-5-5-5-5-------o||
|-7--7-7-7-7-7-7-|-5--5-5-5-5-5-5-|----------------|---------3--5---||


  2.
  E E E E E E E E    Q  E E E E E E   Q  E E E E E E   Q  E E E E E E
|-----------------||----------------|----------------|----------------|
|-----------------||----------------|----------------|----------------|
|-5-5-5-5-5-5-5-5-||----------------|----------------|-5--5-5-5-5-5-5-|
|-----------------||-3--3-3-3-3-3-3-|-3--3-3-3-3-3-3-|----------------|


  Q  E E E E E E   Q  E E E E E E   Q  E E E E E E   Q  E E E E E E   q  H.
|----------------|----------------|----------------|----------------|----------|
|----------------|----------------|----------------|----------------|----------|
|----------------|----------------|----------------|-5--5-5-5-5-5-5-|----------|
|-5--5-5-5-5-5-5-|-3--3-3-3-3-3-3-|-3--3-3-3-3-3-3-|----------------|-5--------|


    Q  E E E E E E   Q  E E E E E E   Q  E E E E E E   Q  E E E E E E
||-----------------|----------------|----------------|-----------------|
||o----------------|----------------|----------------|-----------------|
||o-5--5-5-5-5-5-5-|----------------|-5--5-5-5-5-5-5-|-----------------|
||-----------------|-5--5-5-5-5-5-5-|----------------|-5--5-5-5-5-5-5--|


                                                    1.
  Q  E E E E E E   Q  E E E E E E   Q  E E E E E E   E E E E Q  Q
|----------------|----------------|----------------|----------------||
|----------------|----------------|----------------|---------------o||
|----------------|----------------|-5--5-5-5-5-5-5-|-5-5-5-5-------o||
|-7--7-7-7-7-7-7-|-5--5-5-5-5-5-5-|----------------|---------3--5---||


  2.
  E E E E E E E E     Q  E E E E E E   Q  E E E E E E   Q  E E E E E E
|-----------------||-----------------|----------------|----------------|
|-----------------||o----------------|----------------|----------------|
|-5-5-5-5-5-5-5-5-||o----------------|----------------|-5--5-5-5-5-5-5-|
|-----------------||--3--3-3-3-3-3-3-|-3--3-3-3-3-3-3-|----------------|


  Q  E E E E E E  3x Q  E E E E E E   Q  E E E E E E   Q  E E E E E E
|-----------------||----------------|----------------|----------------|
|----------------o||----------------|----------------|----------------|
|----------------o||----------------|----------------|----------------|
|-5--5-5-5-5-5-5--||-0--0-0-0-0-0-0-|-0--0-0-0-0-0-0-|-3--3-3-3-3-3-3-|


  Q  E E E E E E   Q  E E E E E E   Q  E E E E E E   q  H.        Wx2
|----------------|----------------|----------------|------------|--------|
|----------------|----------------|----------------|------------|--------|
|----------------|----------------|----------------|------------|--------|
|-3--3-3-3-3-3-3-|-5--5-5-5-5-5-5-|-5--5-5-5-5-5-5-|-5----------|--------|


  Q  E E E E E E   Q  E E E E E E   Q  E E E E E E   Q  E E E E E E
|----------------|----------------|----------------|----------------|
|----------------|----------------|----------------|----------------|
|-5--5-5-5-5-5-5-|----------------|-5--5-5-5-5-5-5-|----------------|
|----------------|-5--5-5-5-5-5-5-|----------------|-5--5-5-5-5-5-5-|


  Q  E E E E E E   Q  E E E E E E   Q  E E E E E E   E E E E E E E E
|----------------|----------------|----------------|-----------------|
|----------------|----------------|----------------|-----------------|
|----------------|----------------|-5--5-5-5-5-5-5-|-5-5-5-5-5-5-5-5-|
|-7--7-7-7-7-7-7-|-5--5-5-5-5-5-5-|----------------|-----------------|


  Q  E E E E E E   Q  E E E E E E   Q  E E E E E E   E E E E E E E E
|----------------|----------------|----------------|-----------------|
|----------------|----------------|----------------|-----------------|
|----------------|----------------|-5--5-5-5-5-5-5-|-5-5-5-5-5-5-5-5-|
|-3--3-3-3-3-3-3-|-5--5-5-5-5-5-5-|----------------|-----------------|


  Q  H.        Q  H.        W          +W
|------------|------------|----------|--------*|
|------------|------------|----------|--------*|
|------------|------------|-5--------|-(5)----*|
|-3----------|-5----------|----------|--------*|



Добавлено: 07.10.2013
Другие материалы по этой песне:
  • Аккорды и текст

Страница создана 07.10.2013
http://primanota.ru/screeching-weasel/first-day-of-autumn-chords.htm
Привет, Гость.
Предлагаем пройти революционный курс по гитаре.
Подарок от PrimaNota.Ru, забирай!