PrimaNota.ru - самый крупный в мире бесплатный архив песенных текстов, аккордов, табулатур и нот


Screaming Trees - Shadow Of The Season - текст песни, таба, бас-таба, видео

Регистрация Запомнить меня
Войти через:  Facebook Google Twitter Vk Yandex Mail.ru

Screaming Trees - Shadow Of The Season - текст песни, таба, бас-таба, видео

Печатать
Просмотров: 81
Screaming Trees
"Shadow Of The Season"
Sweet Oblivion

tabbed by: Kevan Williams

a great song off of a great album- if you dont own it, get it.
here is the tab for the first song off of it in its entirity (for the exception of the solo)


| /  slide up
| \  slide down
| h  hammer-on
| p  pull-off
| ~  vibrato
| +  harmonic
| x  Mute note

intro/verse riff

e)----------------------------------------|
b)---6-----6-----6---8---6-----6----------|
g)-----7-7---7-7---7---7---7-7---7-7--5/7-|
d)----------------------------------------|
a)----------------------------------------|
E)----------------------------------------|


riff a

e)-----------------------------|
b)---3-3--3-3--3-3--3-3--------|
g)---2-2--2-2--2-2--2-2--------|
d)---0-0--0-0--0-0--0-0------3-|
a)-----------------------3h5---|
E)-----------------------------|
"without a reason..."


e)--------------|
b)---3--3-------|
g)---2--2-------|
d)---0--0-------|
a)--------------|
E)--------------|
"and from the north woods..."

(then back back to riff a)


chorus

e)---5-(5)/7--(7)\5--(5)\4--------------------------|
b)---6-(6)/8--(8)\6--(6)\5--------------------------|
g)---5-(5)/7--(7)\5--(5)\4--------------------------|
d)-----------------------------------3----------3---|
a)---------------------------5p3----------5p3-----5-|
E)-------------------------------5p3----------5-----|
               "said lord please give me waht i need"

(back to riff a)

e)-----------------------------------|
b)-----------------------------------|
g)---7\-------10\--------5-----10----|
d)---7\-------10\--------5-----10----|
a)---5\-------8-\--------3-----8-----|
E)-----------------------------------|
                            "she calls me onward to her side..."

e)-------------------------------------------------------------------------|
b)---3-----3-----3-----1-----1-----1-----0-----0-----0-----1-----1-----1---|
g)-----2-----2-----2-----2-----2-----2-----2-----2-----2-----2-----2-----2-|
d)-------0-----0-----------0-----0-----------0-----0-----------0-----0-----|
a)-------------------------------------------------------------------------|
E)-------------------------------------------------------------------------|
                  "and find a reason"

well, that is the song.
i would tab out the solo if i had the time.
please rate the tab!
thanks.
Добавлено: 18.06.2013
Другие материалы по этой песне:
  • Аккорды и текст

Страница создана 21.02.2012
http://primanota.ru/screaming-trees/shadow-of-the-season-chords.htm
Привет, Гость.
Предлагаем пройти революционный курс по гитаре.
Подарок от PrimaNota.Ru, забирай!