PrimaNota.ru - самый крупный в мире бесплатный архив песенных текстов, аккордов, табулатур и нот


Screaming Headless Torsos - Hope - бас-таба, видео

Регистрация Запомнить меня
Войти через:  Facebook Google Twitter Vk Yandex Mail.ru

Screaming Headless Torsos - Hope - бас-таба, видео

Печатать
Просмотров: 73
Screaming Headless Torsos - Hope

Tabbed by PopAndSlap125 (check me out on youtube if you think this tab was decent)

Link to official website: http://torsos.com/Website/SHT.html

Standard Tuning EADG
Envelope Filter on choruses and parts of the verse

Intro

G|----------------|
D|----------------|
A|75--75--56------|
E|----------------|

Chorus:

G|--------------6-|----------------|
D|------------5---|---------5-5---5|
A|75---57-5-7-----|-5-5-757----757-|
E|--70------------|----------------|

G|--------------6-|------9-9-------|                 ----------------|
D|------------5---|----------------.|                ----------------|
A|75---57-5-7-----|-5-5h7---4-5-5-6.| Last time play:----------------|
E|--70------------|----------------|                 0---------------|

"What do you know? I'm bustin' outcho radio!"

Verse:

G|--------------6-|----------------|
D|------------5---|---------5-5---5|
A|75----57-5-7----|-5-5-757----757-|
E|--70------------|----------------|

G|--------------6-|------9-9-------|
D|------------5---|----------------|
A|75---57-5-7-----|-5-5h7---4-5-5-6|
E|--70------------|----------------|

G|--------------6-|----------------|
D|------------5---|----------------|
A|75---57-5-7-----|-5-5-7-6-7-5----|
E|--70------------|----------------|

G|-------------------|
D|-------------------|
A|4-3-2-3-44-33-22-3-| 4x
E|-------------------|

G|-------18--17--16--15--14--|
D|1/16-16--16--16--16--16----|
A|---------------------------| 6x then slide up and down
E|---------------------------|

Drum Fill

Chorus:

G|--------------6-|----------------|
D|------------5---|---------5-5---5|
A|75---57-5-7-----|-5-5-757----757-|
E|--70------------|----------------|

G|--------------6-|------9-9----------|
D|------------5---|-------------------|
A|75---57-5-7-----|-5-5h7---4-5-5-6---|
E|--70------------|-------------------|

Verse:

G|--------------6-|----------------|
D|------------5---|---------5-5---5|
A|75----57-5-7----|-5-5-757----757-|
E|--70------------|----------------|

G|--------------6-|------9-9-------|
D|------------5---|----------------|
A|75---57-5-7-----|-5-5h7---4-5-5-6| 2x
E|--70------------|----------------|

Last Time:
G|----------------|
D|----------------|
A|-5-5-7-6-7-5----|
E|----------------|

Guitar Solo, then

G|-------------------|
D|-------------------|
A|4-3-2-3-44-33-22-3-| 4x
E|-------------------|

G|-------18--17--16--15--14--|
D|1/16-16--16--16--16--16----|
A|---------------------------| 6x then slide up and down
E|---------------------------|

Rest

G|-------------9--|
D|----8-5-11-8----|
A|9-7-------------|
E|----------------|

other Guitar Solo/Bridge

Do some improv here, this is the loose structure

G|----------------|----------------|
D|--8-8-x---8-----|--8-x-----------|
A|----------------|----------------|
E|6x-----6x--4/6--|6x---12\-3456---|

G|----------------|---------9-7----|
D|--8-8-x---8-----|--8-x----9-7----|
A|----------------|----------------| 2x
E|6x-----6x--4/6--|6x---12\--------|

G|----------------|
D|----------------|
A|75--75--56------|
E|----------------|

Back to Chorus and Verse

That's it guys, not too busy after you play it a couple times. I tabbed this using 
DavidSinRocks's cover of this song which is fantastic. Hope you liked it.
Добавлено: 01.07.2013
Другие материалы по этой песне:
  • Аккорды и текст

Страница создана 01.07.2013
http://primanota.ru/screaming-headless-torsos/hope-chords.htm
Привет, Гость.
Предлагаем пройти революционный курс по гитаре.
Подарок от PrimaNota.Ru, забирай!