PrimaNota.ru - самый крупный в мире бесплатный архив песенных текстов, аккордов, табулатур и нот


Screaming Females - Wishing Well - бас-таба, видео

Регистрация Запомнить меня
Войти через:  Facebook Google Twitter Vk Yandex Mail.ru

Screaming Females - Wishing Well - бас-таба, видео

Печатать
Просмотров: 74
Уроки эстрадного вокала в Санкт-Петербурге
-------------------------------------------------------------------------------
                             WISHING WELL - Screaming Females
-------------------------------------------------------------------------------
Tabbed by: TheRash
E-mail: link_12346@hotmail.com

Awesome song so I tabbed it by ear!

Here is my cover on YouTube to get a better feel...

https://www.youtube.com/watch?v=ufgrvqrZoj0


Tuning: Standard

Intro/Verse:

G|----------------------------------------------|
D|----------------------------------5-5/7-------|
A|-5-5h7-5---5-------9-8-7-7--7-5-7-------------|
E|---------7---7-7--7---------------------------|

Pre-Chorus:

   IN the next LIFE I'll be BETTER!
G|---------------------------------------------------------------|
D|---------------------------------------------------------------|
A|--5-----------2------------------------------------------------|
E|--------------------------0--0-2-3--3-3-3-3-3-3-3--------------|

Chorus:
G|-----------------------------------------|
D|-----------------------------------------|
A|-5-5-5-5-5-5-5-5-------------------------|
E|-----------------3-3-3-3-3-3-3-3---------| x3

G|-------------------------------------------|
D|-------------------------------------------|
A|-2-2-2-2-2-2-2-2---------------------------|
E|-----------------3-3-3-3--3--5-------------|


Solo: Same as Verse

Outro Chorus:

G|-----------------------------------------|
D|-----------------------------------------|
A|-5-5-5-5-5-5-5-5-------------------------|
E|-----------------3-3-3-3-3-3-3-3---------| x3

G|-------------------------------------------|
D|-------------------------------------------|
A|-2-2-2-2-2-2-2-2----------------5----------|
E|-----------------3-3-3-3--3--5-------------|


That's basically it!

Hope you like it!


| /  slide up
| \  slide down
| h  hammer-on
| p  pull-off
| ~  vibrato
| +  harmonic
| x  Mute note
===============================================================================
Добавлено: 07.05.2016
Другие материалы по этой песне:
  • Аккорды и текст

Страница создана 07.05.2016
http://primanota.ru/screaming-females/wishing-well-chords.htm
Привет, Гость.
Предлагаем пройти революционный курс по гитаре.
Подарок от PrimaNota.Ru, забирай!