PrimaNota.ru - самый крупный в мире бесплатный архив песенных текстов, аккордов, табулатур и нот


Screaming Females - Tell Me No - таба, видео

Регистрация Запомнить меня
Войти через:  Facebook Google Twitter Vk Yandex Mail.ru

Screaming Females - Tell Me No - таба, видео

Печатать
Просмотров: 84
Official tab from the band, just sharing it to U.G.

"Tell Me No"
Screaming Females
from "Ugly" (2012)

Intro:
Play an Amaj chord rooted
e]---5----5----5----5----|
b]---5----5----5----5----|
g]---6----6----6----6----|
d]---7----7----7----7----|
a]---7----7----7----7----|
e]---5----5----5----5----|

on the low E string on the first beat of every measure for four measures:

Verse:
"I want to keep the weakest one / I want to make him mine...
e]-----------------------------------------------------------------------------------------------------------|
b]-----------------------------------------------------------------------------------------------------------|
g]-----------------------8-7-7-7-------------------------8-7-7-7-------------------------8-7-7-7-------------|
d]-----------------------------------------------------------------------------------------------------4-----|
a]-----------------------6-5-5-5-------------------------6-5-5-5-------------------------6-5-5-5-----5---6-5-|
e]5-5-5-3-5-5-5-3-0-0-0----------5-5-5-3-5-5-5-3-0-0-0------------5-5-5-3-5-5-5-3-0-0-0----------------------|

"Chorus"
(No vocal)
e]------------------------5-5------------------------------------------------------5-5-----------------------|
b]------------------------5-5------------------------------------------------------5-5-----------------------|
g]---7/8-8-8-8\7----------6-6--7/8-8-8-8\7--------------------7/8-8-8-8\7----------6-6--7/8-8-8-8\7-------10-|
d]----------------8-8-8-8-7-7---------------8-8-8-8------------------------8-8-8-8-7-7---------------8-7-----|
a]---5/6-6-6-6\5----------7-7--5/6-6-6-6\5---------------5h6--5/6-6-6-6\5----------7-7--5/6-6-6-6\5-------8--|
e]----------------6-6-6-6-5-5---------------6-6-6-6--6h7-------------------6-6-6-6-5-5---------------6-5-----|

Build:
e]---------------------------------------|
b]---------------------------------------|
g]---12----14----15-----17---------------|
d]---------------------------------------|
a]---10----12----13-----15---12-12-12-12-|
e]---------------------------------------|

Verse x1
"Your tiny hands pursue my heart / you wind me in the womb..."

Bridge x4
"All my intentions are bred by the worst / inheriting the family curse..."
e]-------------------------------------------------------|
b]-------------------------------------------------------|
g]-------------------------------------------------------|
d]-------4-----7------4-----7------4-----7------4-----7--|
a]---5-5---6-5----5-5---6-5----5-5---6-5----5-5---6-5----|
e]-------------------------------------------------------|

Solo:
e]-----------------------------------------------------------------------2---2/3---3---5p3---3--------------|
b]-----------------------------------------------------------------3h4-4---4-----4---4-----4---4p3-3-3--3-3-|
g]----------------------------------------------------------------------------------------------------------|
d]------------4----4-5-7~~~8-8-8-7-8/10-8-7-8-7-7h8p7-5-7-5-4-----------------------------------------------|
a]---5~~~~5h6---5---------------------------------------------5~~~~-----------------------------------------|
e]----------------------------------------------------------------------------------------------------------|

Solo cont.:
e]---------14-15-17-15-14-15-14-----14--------------|
b]---15-16-----------------------16----16--16b-14~~-|
g]--------------------------------------------------|
d]--------------------------------------------------|
a]--------------------------------------------------|
e]--------------------------------------------------|

Clean guitar:
e]-----5-5-----|
b]-----7-8-x---|
g]---7-5-5-8-7-|
d]---7-7-7-7-7-|
a]---5-5-5-5-5-|
e]---x-----x-x-|

Verse x 1
"Give me grief / my only strength..."

"Chorus" x 1


submitted by bundas74
01/20/2015
Добавлено: 20.05.2015
Другие материалы по этой песне:
  • Аккорды и текст

Страница создана 20.05.2015
http://primanota.ru/screaming-females/tell-me-no-chords.htm
Привет, Гость.
Предлагаем пройти революционный курс по гитаре.
Подарок от PrimaNota.Ru, забирай!