PrimaNota.ru - самый крупный в мире бесплатный архив песенных текстов, аккордов, табулатур и нот


Screaming Females - Ripe - таба, видео

Регистрация Запомнить меня
Войти через:  Facebook Google Twitter Vk Yandex Mail.ru

Screaming Females - Ripe - таба, видео

Печатать
Просмотров: 100
Ripe - Screaming Females
Tabbed by: Chris Bilbao

Tuning: Drop D


Intro:x2

E|----------------------------|
B|----------------------------|
G|----------------------------|
D|----12---12-12---12---12-12-|
A|----12---12-12---12---12-12-|
D|----12---12-12---12---12-12-|

Riff:x2

E|---------------------------------------------------------------------|
B|---------------------------------------------------------------------|
G|---------------------------------------------------------------------|
D|--------0------------------------------------)-----10--10/12---------|
A|--------0--------------14-15-17--------------)x3---10--10/12-x2------|
D|--------0--17-15-17-15-----------0-14-15--12-)-----10--10/12---------|

Verse:x2

E|--------------------------------------------------------|
B|--------------------------------------------------------|
G|--------------------------------------------------------|
D|----7---7-7------5---5-5--------------------------------|
A|----5---5-5-x4---3---3-3-x2---7--7-7-7-7--8-8-8-5-5-8---|
D|----0---0-0-------------------7--7-7-7-7--8-8-8-5-5-8---|

Bridge:x2

E|----------------------------|
B|----------------------------|
G|----------------------------|
D|----7--8--7----0-5--8-------|
A|----5--8--7----0-5--8-------|
D|----0--8--7----0-5--8--4~~~-|

Riff:x2

Verse:x2

Bridge:x2

Verse 2:x2 (pretty sure second chord is wrong but whateve)

E|-------------------|
B|----6-------5------|
G|----7-x32---5--x32-|
D|----7-------7------|
A|----5-------5------|
D|-------------------|
Добавлено: 20.05.2015
Другие материалы по этой песне:
  • Аккорды и текст

Страница создана 20.05.2015
http://primanota.ru/screaming-females/ripe-chords.htm
Привет, Гость.
Предлагаем пройти революционный курс по гитаре.
Подарок от PrimaNota.Ru, забирай!