PrimaNota.ru - самый крупный в мире бесплатный архив песенных текстов, аккордов, табулатур и нот


Screaming Females - Leave It All Up To Me - таба, видео

Регистрация Запомнить меня
Войти через:  Facebook Google Twitter Vk Yandex Mail.ru

Screaming Females - Leave It All Up To Me - таба, видео

Печатать
Просмотров: 122
Official tab from the band, just sharing it to U.G.

"Leave It All Up To Me"
Screaming Females
from "Ugly" (2012)

Intro/Chorus Riff: x2 (CLEAN)
e]----------------------------------------------------------|
b]------------13----------12----------13--------------------|
g]---14-12h14-12-14-12-11-11-14-12h14-12-14--14-14-14-12-11-|
d]---0--0--0--0--0--0--0--12-0--0--0--0--0---0--0--0--0--0--|
a]----------------------------------------------------------|
e]----------------------------------------------------------|

Intro/Chorus Riff
e]-----------------------------------------------------------|
b]------------13----------12----------13---------------------|
g]---14-12h14-12-14-12-11-11-14-12h14-12-14--14-14-14-12-11--|
d]---0--0--0--0--0--0--0--12-0--0--0--0--0---0--0--0--0--0---|
a]-----------------------------------------------------------|
e]-----------------------------------------------------------| \
                                                               x 2 (DISTORTED)
e]-----------------------------------------------------------| /
b]----------13----------12---12-12-12/15--15-15/17--17-17/20-|
g]-14-12h14-12-14-12-11-11-----------------------------------|
d]-0--0--0--0--0--0--0--12-----------------------------------|
a]-----------------------------------------------------------|
e]-----------------------------------------------------------|

Verse:
"My fingers swarm the gun / as blinding as the sun..."
e]-12-12-10-10-12-12-10-10-------------------------12-12-10-10-12-12-10-10-----------------------------------|
b]-12-12-12-12-12-12-12-12-10-10-10-10-10-10-10-10-12-12-12-12-12-12-12-12-10-10-10-10-----------------------|
g]-12-12-12-12-12-12-12-12-12-12-11-11-12-12-11-11-12-12-12-12-12-12-12-12-12-12-11-11--12-12-12--11-11-11-7-|
d]-------------------------12-12-12-12-12-12-12-12-------------------------12-12-12-12--0--0--0---0--0--0--0-|
a]-----------------------------------------------------------------------------------------------------------|
e]-----------------------------------------------------------------------------------------------------------|

Intro/Chorus Riff x 2
"I'm a believer / hanging on your thumb..."

Verse x 1
"A baby in the crib / is when the engine splits..."

Break:
e]-----------------------------------10p8------------------------------------------------|
b]---------7h8p7---7h8p7-------7h8p7------8h10-------7h8p7---7h8p7-------7h8-------------|
g]---9-9-9-------9-------9-9-9-----------------9-9-9-------9-------9-9-9-----7--7-7h9----|
d]---0-0-0-------0-------0-0-0-----------------0-0-0-------0-------0-0-0-----0--0-0-0--7-|
a]-------------------------------------------------------------------------------------0-|
e]---------------------------------------------------------------------------------------|

"I drag the pen for lucifer / help me now to find the cure..."
e]-------------------------------------------------------------------------------------------|
b]---------7h8-------------------7h8-------------------7h8-------------------7h8-------------|
g]---9-9-9-----7--7-7h9----9-9-9-----7--7-7h9----9-9-9-----7--7-7h9----9-9-9-----7--7-7h9----|
d]---0-0-0-----0--0-0-0--7-0-0-0-----0--0-0-0--7-0-0-0-----0--0-0-0--7-0-0-0-----0--0-0-0--7-|
a]-----------------------0---------------------0---------------------0---------------------0-|
e]-------------------------------------------------------------------------------------------|

Bridge x 4
"It's better always / to hand over the key..."
e]-----------------------------|
b]-----------------------------|
g]---9-/11-14--9-9-9--7-9--6---|
d]---7-/12-12--7-7-7--7-7--7---|
a]-------------------------7---|
e]-----------------------------|

Interlude:
Lots of delay and the open D string!
Intro/Chorus Riff:
e]----------------------------------------------------------|
b]------------13----------12----------13--------------------|
g]---14-12h14-12-14-12-11-11-14-12h14-12-14--14-14-14-12-11-|
d]---0--0--0--0--0--0--0--12-0--0--0--0--0---0--0--0--0--0--|
a]----------------------------------------------------------|
e]----------------------------------------------------------|

Intro/Chorus Riff: x 4 CLEAN
"I'm a believer / hanging on your thumb..."
e]-----------------------------------------------------------|
b]------------13----------12----------13---------------------|
g]---14-12h14-12-14-12-11-11-14-12h14-12-14--14-14-14-12-11--|
d]---0--0--0--0--0--0--0--12-0--0--0--0--0---0--0--0--0--0---|
a]-----------------------------------------------------------|
e]-----------------------------------------------------------| \
                                                               x 2 (DISTORTED)
e]-----------------------------------------------------------| /
b]----------13----------12---12-12-12/15--15-15/17--17-17/20-|
g]-14-12h14-12-14-12-11-11-----------------------------------|
d]-0--0--0--0--0--0--0--12-----------------------------------|
a]-----------------------------------------------------------|
e]-----------------------------------------------------------|

Outro:
e]-------------------------------------------------------------------------------------------|
b]---------7h8-------------------7h8-------------------7h8-------------------7h8-------------|
g]---9-9-9-----7--7-7h9----9-9-9-----7--7-7h9----9-9-9-----7--7-7h9----9-9-9-----7--7-7h9----|
d]---0-0-0-----0--0-0-0--7-0-0-0-----0--0-0-0--7-0-0-0-----0--0-0-0--7-0-0-0-----0--0-0-0--7-|
a]-----------------------0---------------------0---------------------0---------------------0-|
e]-------------------------------------------------------------------------------------------|

e]-----------------------------------------------------------------------------------------------|
b]---------7h8-------------------7h8-------------------7h8-------------------7h8-----------------|
g]---9-9-9-----7--7-7h9----9-9-9-----7--7-7h9----9-9-9-----7--7-7h9----9-9-9-----7--7-7h9--------|
d]---0-0-0-----0--0-0-0--7-0-0-0-----0--0-0-0--7-0-0-0-----0--0-0-0--7-0-0-0-----0--0-0-0--7-5-2-|
a]-----------------------0---------------------0---------------------0---------------------0-0-0-|
e]-----------------------------------------------------------------------------------------------|

submitted by bundas74
01/20/2015
Добавлено: 20.05.2015
Другие материалы по этой песне:
  • Аккорды и текст

Страница создана 20.05.2015
http://primanota.ru/screaming-females/leave-it-all-up-to-me-chords.htm
Привет, Гость.
Предлагаем пройти революционный курс по гитаре.
Подарок от PrimaNota.Ru, забирай!