PrimaNota.ru - самый крупный в мире бесплатный архив песенных текстов, аккордов, табулатур и нот


Screaming Females - Its Nice - таба, видео

Регистрация Запомнить меня
Войти через:  Facebook Google Twitter Vk Yandex Mail.ru

Screaming Females - Its Nice - таба, видео

Печатать
Просмотров: 115
might just be my favourite track on the album..
Official tab from the band, just sharing it to U.G.

"It's Nice"
Screaming Females
from "Ugly" (2012)

Intro:

e]------------------------------------------------|
b]--------3-----5p3-----------------3------5--/8--|
g]----------4--------4--2--0----------4----4--/7--|
d]---4h5------5----------------4h5------5---------|
a]------------------------------------------------|
e]------------------------------------------------| x 2

Verse:
"I can't trace the word / it's a swollen space / it talks to me..."

e]-------------------------------------------------------7--|
b]-----3-------------10-----------10--------8------------7--|
g]---4---4-----11--------12p11----------9-----9------8---8--|
d]---5-----5------12-----------12-----9---9-----9--9-----9--|
a]----------------------------------------------------------|
e]----------------------------------------------------------| x 2

"Ooooooo..."

e]------------3--------------0----------------------------------0-------|
b]---3-----------3----3---------3--------------0-------4----------4-----|
g]------4----------4----4----------4---------0---0--------4----------4--|
d]---5-----5--5-------4---4--4------------2---------2--4-----4--4-------|
a]-------------------------------------2-------2------------------------|
e]----------------------------------------------------------------------| x 2

"They take me out / they make it fair..."

e]------------3--------------0------------------------------------------|
b]---3-----------3----3---------3--------------1----------------1-------|
g]------4----------4----4----------4--------2----2-----------0-----0----|
d]---5-----5--5-------4---4--4-----------2----------2-----2----------2--|
a]------------------------------------0--------0-------3--------3-------|
e]----------------------------------------------------------------------| x 2

Chorus:
"And it's nice..."

e]---3--3---3--3--3--3---3--3--3--3---3--3---------------------|
b]---3--3---4--4--3--3---4--4--3--3---4--4--3-----3-----3------|
g]---4--4---5--5--4--4---5--5--4--4---5--5----4-----4-----4----|
d]---5--5---5--5--5--5---5--5--5--5---5--5------5-----5-----5--|
a]---5--5---3--3--5--5---3--3--5--5---3--3---------------------|
e]---3--3---3--3--3--3---3--3--3--3---3--3---------------------|

Verse x 2
"Put me in your head / drown the rat that gnaws at me..."

"Oooooo..." x 2

"They take me out / they make it fair..." x 2

"And it's nice..." x 1

Intro x 2

submitted by bundas74
01/20/2015
Добавлено: 20.05.2015
Другие материалы по этой песне:
  • Аккорды и текст

Страница создана 20.05.2015
http://primanota.ru/screaming-females/its-nice-chords.htm
Привет, Гость.
Предлагаем пройти революционный курс по гитаре.
Подарок от PrimaNota.Ru, забирай!