PrimaNota.ru - самый крупный в мире бесплатный архив песенных текстов, аккордов, табулатур и нот


Screaming Females - I Do - таба, видео

Регистрация Запомнить меня
Войти через:  Facebook Google Twitter Vk Yandex Mail.ru

Screaming Females - I Do - таба, видео

Печатать
Просмотров: 115
                             I Do-Screaming Females
Tabbed by:Ethan Hausler
Email:ethanhausler@yahoo.com

Tuning:Standard

Intro and Verses
e|-----------------------------------------------------------------------|
B|-----------------------------------------------------------------------|
G|-14-14--1414-xx--11-12-------------------------------------------------|
D|-0--0----0-0-xx-----------16-16-14~-14/--------------------------------|
A|--------------------------14-14----------------------------------------|
E|-----------------------------------------------------------------------|

Chorus 
e|-----------------------------------------------------------------------|
B|-----------------------------------------------------------------------|
G|-9-9-99-xx-77-xx-99-7--67--9-9-99-xx-77-676-4-2------------------------|
D|-9-9-99-xx-77-xx-99-7------9-9-99-xx-77--------------------------------|
A|-7-7-77-xx-55-xx-77-5------7-7-77-xx-55--------------------------------|
E|-----------------------------------------------------------------------|

e|-----------------------------------------------------------------------|
B|-----------------------------------------------------------------------|
G|-9-9-99-xx-77-xx-99-7---7*---9-9-99-xx-77------------------------------|
D|-9-9-99-xx-77-xx-99-7--7*----9-9-99-xx-77-2-4-6-7-6--------------------|
A|-7-7-77-xx-55-xx-77-5--------7-7-77-xx-55-0-2-4-5-4--------------------|
E|-----------------------------------------------------------------------|

Order:
Intro
Verse
Chorus
Verse
Chorusx1
Solo
Verse Riff


Thats pretty much it except for the solo (which I dont have) theres no guitar in the outro part.

Corrections, comments or anything else feel free to email me.




************************************

| /   slide up
| \   slide down
| h   hammer-on
| p   pull-off
| ~   vibrato
| *   harmonic
| x   Mute note
| b   Bend
| pb  Pre-bend
| br  Bend release
| pbr Pre-bend release
| brb Bend release bend

************************************
Добавлено: 16.05.2012
Другие материалы по этой песне:
  • Аккорды и текст

Страница создана 16.05.2012
http://primanota.ru/screaming-females/i-do-chords.htm
Привет, Гость.
Предлагаем пройти революционный курс по гитаре.
Подарок от PrimaNota.Ru, забирай!