PrimaNota.ru - самый крупный в мире бесплатный архив песенных текстов, аккордов, табулатур и нот


Scream - Rain - текст песни, таба, видео

Регистрация Запомнить меня
Войти через:  Facebook Google Twitter Vk Yandex Mail.ru

Scream - Rain - текст песни, таба, видео

Печатать
Просмотров: 93
This is the (almost) full tab for Rain from the album Fumble by Scream.

Tabbed by: Alfie Prior
E-mail: kidneyfeet@gmail.com

Tuning:1/2 step down (Eb Ab Db Gb Bb eb)

Intro

eb|---------0---------------0---------------0---------------0---------------|
Bb|-----0-4---4-0-------0-4---4-0-------0-4---4-0-------0-4---4-0-----------|
Gb|-------------------------------------------------------------------------|
Db|-------------------------------------------------------------------(x3)--|
Ab|-2---------------4---------------0---------------------------------------|
Eb|-------------------------------------------------0-----------------------|

eb|---------0---------------0---------------0-------------------------------|
Bb|-----0-4---4-0-------0-4---4-0-------0-4---4-0---------------------------|
Gb|-------------------------------------------------------------------------|
Db|-------------------------------------------------------2-2---2---2-------|
Ab|-2---------------4---------------0---------------------2-2---2---2-------|
Eb|-------------------------------------------------------0-0---0---0-------|

Verse (Same as intro but with another guitar playing a B power chord at the beginning of 
each repetition)

Chorus

eb|-------------------------------------------------------------------------|
Bb|-------------------------------------------------------------------------|
Gb|-7---7-7-7---7-7---9---9-9-9-9---9-9-------------------------------------|
Db|-7---7-7-7---7-7---9---9-9-9-9---9-9-------------------------------------|
Ab|-5---5-5-5---5-5-/-7---7-7-7-7---7-7-------------------------------------|
Eb|-------------------------------------------------------------------------|

Bridge Part 1

eb|---------------------------------------------------------------------------|
Bb|---------------------------------------------------------------------------|
Gb|---------9---9-----9-9-9-9-9-9---------------------------------------------|
Db|---------9---9-----9-9-9-9-9-9---------------------------------------------|
Ab|---------7---7-----7-7-7-7-7-7---------------------------------------------|
Eb|-0-0-0-0-------0-0---------------------------------------------------------|
 pm|- - - -|   pm|- ----------------------------------------------------------|

Bridge Part 2

eb|---------0---------------0-----------------------------------------------|
Bb|-------7---7-----------7---7---------------------------------------------|
Gb|-----7-------7-------7-------7-------------------------------------------|
Db|-------------------------------------------------------------------------|
Ab|-5---------------7-------------------------------------------------------|
Eb|-------------------------------------------------------------------------|

Enjoy!

************************************

| /   slide up
| \   slide down
| h   hammer-on
| p   pull-off
| ~   vibrato
| +   harmonic
| x   Mute note
| b   Bend
| pb  Pre-bend
| br  Bend release
| pbr Pre-bend release
| brb Bend release bend

************************************
Добавлено: 03.06.2013
Другие материалы по этой песне:
  • Аккорды и текст

Страница создана 03.06.2013
http://primanota.ru/scream/rain-chords.htm
Привет, Гость.
Предлагаем пройти революционный курс по гитаре.
Подарок от PrimaNota.Ru, забирай!