PrimaNota.ru - самый крупный в мире бесплатный архив песенных текстов, аккордов, табулатур и нот


Scracho - Voce Mudou - бас-таба, видео

Регистрация Запомнить меня
Войти через:  Facebook Google Twitter Vk Yandex Mail.ru

Scracho - Voce Mudou - бас-таба, видео

Печатать
Просмотров: 137
Уроки эстрадного вокала в Санкт-Петербурге
Tabbed by: JimBlenderBR

 - Give your rating and help others users to find the best versions of the songs - 

r = Let it Ring



Verse 1
(Mas agora chego ao fim...)

G|---------------------|
D|---------------------|
A|---------------------|
E|--22222222-00000000--|


Pre-Chorus
(E enquanto eu me refaço...)

G|-----------------------------------------------------------|
D|-----------------------------------------------------------|
A|--22222222-55555555----------------------------------------|
E|--------------------55-55-55-55-55-5-5-00-00-00-00-00-0-0--|

(Mas a história da minha vida...)

G|---------------------|
D|---------------------|
A|--22222222-55555555--|
E|---------------------|


Chorus
(Que você fez...)

G|-----------------------------------------|
D|-----------------------------------------|
A|--00000000-------------------5555-55-55--|
E|-----------00000000-22222222-------------|

G|------------------------------------------|
D|------------------------------------------|
A|--00000000-------------------55-55-55-----|
E|-----------0000-1111-22222222---------5r--|


Verse 2
(Não reconheço a minha pequena...)

G|----------------|
D|----------------|
A|----------------|
E|--55-55--44-44--|

(Pra onde foi o amor...)

G|---------------------|
D|---------------------|
A|---------------------|
E|--22222222-00000000--|

(Sei que isso é meu problema...)

G|--------------------------------------|
D|--------------------------------------|
A|--------------------------------------|
E|--55555555-44444444-22222222-0000000--|


Pre-Chorus
(E enquanto eu me refaço...)

G|-----------------------------------------------------------|
D|-----------------------------------------------------------|
A|--22222222-55555555----------------------------------------|
E|--------------------55-55-55-55-55-5-5-00-00-00-00-00-0-0--|

(Mas a história da minha vida...)

G|---------------------|
D|---------------------|
A|--22222222-55555555--|
E|---------------------|


Chorus
(Que você fez...)

G|-----------------------------------------|
D|-----------------------------------------|
A|--00000000-------------------5555-55-55--|
E|-----------00000000-22222222-------------|

G|------------------------------------------|
D|------------------------------------------|
A|--00000000-------------------55-55-55-----|
E|-----------0000-1111-22222222---------5r--|


Bridge
(Só quero que você entenda...)

G|------------------------------------------------|
D|------------------------------------------------|
A|--------------------------------------------5r--|
E|--555-5-5-5-5-5-444-4-4-4-4-4-222-2-2-2-2-2-----|

G|-----------------------------------------------------77777777--|
D|---------------------------------------------------------------|
A|--------------------------------------------5r--05r------------|
E|--555-5-5-5-5-5-444-4-4-4-4-4-222-2-2-2-2-2--------------------|


Chorus
(Você fez...)

G|-----------------------------------------|
D|-----------------------------------------|
A|-Break-----------------------5555-55-55--|
E|-----------00000000-22222222-------------|

G|----------------------------------------------|
D|----------------------------------------------|
A|--00000000--------------------5555-17171717*--|
E|-----------0000-1111-22222222-----------------|  *Seventeen. Not one and seven

G|----------------------------------------|
D|----------------------------------------|
A|-00000000-------------------5555-55-55--|
E|----------00000000-22222222-------------|

G|-------------------------------------------|
D|-------------------------------------------|
A|--00000000--------------------55555555-----|
E|-----------0000-1111-22222222----------5r--|




Добавлено: 20.07.2015
Другие материалы по этой песне:
  • Аккорды и текст

Страница создана 20.07.2015
http://primanota.ru/scracho/voce-mudou-chords.htm
Привет, Гость.
Предлагаем пройти революционный курс по гитаре.
Подарок от PrimaNota.Ru, забирай!