PrimaNota.ru - самый крупный в мире бесплатный архив песенных текстов, аккордов, табулатур и нот


Scracho - Universo Paralelo - бас-таба, видео

Регистрация Запомнить меня
Войти через:  Facebook Google Twitter Vk Yandex Mail.ru

Scracho - Universo Paralelo - бас-таба, видео

Печатать
Просмотров: 73
Tabbed by: JimBlenderBR

 - Give your rating and help others users to find the best versions of the songs - 

r = Let it Ring


Intro   

G|-------------------------------------------------|
D|-------------------------------------------------|
A|---------------------57--------------------------|
E|-------555---555---57--753-33333333-2222222-555--| 

G|-------------------------------------|
D|-------------------------------------|
A|----------57-------------------------|
E|--555---57--753-33333333-2222222-5r--|


Verse 1 
(Ainda falta o sol se pôr...)

G|-------------------------------------------|
D|------------------5575---------------------|
A|----------------------7--------------------|
E|------33--22--33-------555--33--22--33-----|


Chorus
(Tudo o que eu penso...)

G|---------------------------------------|
D|---------------------------------------|
A|---------------------------------------|
E|--55555555-33333333-2222222-33-333-33--| 

(E você diz que o longe não...)

G|--------------------------------------|
D|--------------------------------------|
A|--------------------------------------|
E|--55555555-00000000-33333333-222-222--| 

(E eu te digo, então...)

G|-------------------------------------------|
D|-------------------------------------------|
A|-----------77777777------------------------|
E|--55555555----------33333333-222-222-223r--| 

(Geral por perto...)

G|--------------------------------------------|
D|--------------------------------------------|
A|--------------005750------------------------|
E|--555---555---------3-33333333-2222222-555--| 

(E é por você meu sentimento...)

G|----------------------------------|
D|----------------------------------|
A|--------005750--------------------|
E|--555---------3-33333333-2222222--| 


Chorus
(Tudo o que eu penso...)

G|---------------------------------------|
D|---------------------------------------|
A|---------------------------------------|
E|--55555555-33333333-2222222-33-333-33--| 

(E você diz que o longe não...)

G|--------------------------------------|
D|--------------------------------------|
A|--------------------------------------|
E|--55555555-00000000-33333333-222-222--| 

(E eu te digo, então...)

G|-------------------------------------------|
D|-------------------------------------------|
A|-----------77777777------------------------|
E|--55555555----------33333333-222-222-223r--| 


Bridge
(Com você viajar o mundo...)


G|-----------------------------------------------------------------------|
D|---------------------------------------9-9-9------12--12--12-----------|
A|-----------------------------7-7-7---77-7-7---1010--10--10----999------|
E|---------------------------55-5-5---------------------------------15\--| 


Instrumental

G|---------------|
D|---------------|
A|---------------|
E|--55-00-33-22--|

G|---------------|
D|---------------|
A|---------------|
E|--55-00-33-33--|

G|---------------|
D|---------------|
A|---------------|
E|--55-00-33-22--|

                       (...e você diz que o longe não...)

G|--------------------------------------------------------|
D|---------------------------------------------55-555-55--|
A|--------------------------------------------------------|
E|--55-00-3r--3/6r--5r------------------------------------|


Chorus
(E você diz que o longe não...)

G|---------------------------------------|
D|---------------------------------------|
A|---------------------------------------|
E|--55555555-00000000-33333333-22222222--| x2


Ending

G|-----------------|
D|-----------------|
A|--------5575-----|
E|--333-------05r--|

Добавлено: 20.07.2015
Другие материалы по этой песне:
  • Аккорды и текст

Страница создана 20.07.2015
http://primanota.ru/scracho/universo-paralelo-chords.htm
Привет, Гость.
Предлагаем пройти революционный курс по гитаре.
Подарок от PrimaNota.Ru, забирай!