PrimaNota.ru - самый крупный в мире бесплатный архив песенных текстов, аккордов, табулатур и нот


Scracho - Quando Eu Voltar - бас-таба, видео

Регистрация Запомнить меня
Войти через:  Facebook Google Twitter Vk Yandex Mail.ru

Scracho - Quando Eu Voltar - бас-таба, видео

Печатать
Просмотров: 73
Tabbed by: JimBlenderBR

 - Give your rating and help others users to find the best versions of the songs - 

r = Let it Ring


Intro

G|--------------------------------------------|
D|--------------------------------------------|
A|-Just Guitar----------22xx22x2-/-77xx77-76--|
E|--------------------------------------------|  x2


Verse 1
(Eu quero ter você...)

G|------------------|
D|------------------|
A|-22--2-/-77--6-\--|
E|------------------|  x2


Pre-Chorus
(Porquê você...)

G|--------------------------------|
D|----------44-22222222-44444444--|
A|-22222222-----------------------|
E|--------------------------------|


Chorus
(Será que quando eu voltar...)

G|-------------------------------------|
D|----------44444444-------------------|
A|-22222222-------------------7r---66--|
E|-------------------44444444----------|  

G|-------------------------------------|
D|-------------------------------------|
A|-22222222-------------------7r---6\--|
E|----------22222222-44444444----------|  


Post-Chorus

G|------------------------------------|
D|------------------------------------|
A|-22222222-6666666-77777777----------|
E|---------------------------444-222--|  


Verse 1
(Eu quero te dizer...)

G|------------------|
D|------------------|
A|-22--2-/-77--6-\--|
E|------------------|  x2


Pre-Chorus
(Porquê eu não sei...)

G|--------------------------------|
D|----------44-22222222-44444444--|
A|-22222222-----------------------|
E|--------------------------------| x2


Chorus
(Será que quando eu voltar...)

G|-------------------------------------|
D|-------------------------------------|
A|-22222222-------------------7r---66--|
E|----------22222222-44444444----------|  

G|---------------------------------------|
D|-----------------------------------6r--|
A|-22222222-------------------7r---77----|
E|----------22222222-44444444------------|  


Bridge
(Se não é você...)

G|------------------------------|
D|--4r--2r----------------------|
A|------------------------------|
E|----------444-4-222-2-00-000--|  

(Que te faz rir...)

G|-------------------------------|
D|-------------------2--2--2--2--|
A|-2222222h4---------------------|
E|-----------22222-00-00-00-00---|  

G|-----------------------------------------|
D|------24-46-------9--9--9--9-------------|
A|-22-24------467-77-77-77-77--9999999999--|
E|-----------------------------------------|  

Chorus
(Será que quando eu voltar...)

G|--------------------------------------------------------|
D|---4--4--4--4----11-11-11-11-----------------9--9--9----|
A|-22-22-22-22---99-99-99-99----6--6--6--6--77-77-77--77--|
E|----------------------------44-44-44-44-----------------|  

G|--------------------------------------------------------|
D|---4--4--4--4----11-11-11-11-----------------9--9--9----|
A|-22-22-22-22---99-99-99-99----6--6--6--6--77-77-77--2202r--|
E|----------------------------44-44-44-44-----------------| 

G|--------------------------------------------------|
D|-----------11-11-11-11-----------------9--9--9----|
A|-Break---99-99-99-99----6--6--6--6--77-77-77--77--|
E|----------------------44-44-44-44-----------------| 

G|--------------------------------------------------------|
D|---4--4--4--4----11-11-11-11----------------------------|
A|-22-22-22-22---99-99-99-99----6--6--6--6--777-777--7----|
E|----------------------------44-44-44-44-------------7r--| 
Добавлено: 20.07.2015
Другие материалы по этой песне:
  • Аккорды и текст

Страница создана 20.07.2015
http://primanota.ru/scracho/quando-eu-voltar-chords.htm
Привет, Гость.
Предлагаем пройти революционный курс по гитаре.
Подарок от PrimaNota.Ru, забирай!