PrimaNota.ru - самый крупный в мире бесплатный архив песенных текстов, аккордов, табулатур и нот


Scracho - A Grande Bola Azul (album) - бас-таба, видео

Регистрация Запомнить меня
Войти через:  Facebook Google Twitter Vk Yandex Mail.ru

Scracho - A Grande Bola Azul (album) - бас-таба, видео

Печатать
Просмотров: 74
Scracho - A Grande Bola Azul


1. Dubohm
2. Universo Paralelo
3. Quando eu voltar
4. Faça Valer
5. A Vida Que Eu Quero
6. Divina Comédia
7. Então Vai
8. Mais um Dia
9. Você Mudou
10. Pelo Tempo Que For
11. Dois Sorrisos e Meia Palavra (Canção Pra Te Mostrar)  *No Bass
12. Sissy
13. Treze  **Will be upload soon!
14. Morena  


All Songs Tabbed By BlenderBR

-----------------------------------------------------------------------------
                             1. Dubohm
-----------------------------------------------------------------------------

Tabbed by: JimBlenderBR

 - Give your rating and help others users to find the best versions of the songs - 

r = Let it Ring



G|-------------------------------------------------|
D|----------5/7r-------5/7r--9/15-15\9-------------|
A|-------------------------------------0r------0r--|
E|-------------------------------------------------|

G|-------------------------|
D|-------------------------|
A|----------------555-4----|
E|------555-0-7---------5--|

G|-------------------------|
D|-------------------------|
A|----------------555-4----|
E|------555-0-7---------5--|

G|---------------------------|
D|---------------------------|
A|------------------555-4----|
E|----12\-555-0-7---------5--|

G|-------------------------|
D|-------------------------|
A|----------------555-4----|
E|------555-0-7---------5--|



-----------------------------------------------------------------------------
                             2. Universo Paralelo
-----------------------------------------------------------------------------

Tabbed by: JimBlenderBR

 - Give your rating and help others users to find the best versions of the songs - 

r = Let it Ring


Intro   

G|-------------------------------------------------|
D|-------------------------------------------------|
A|---------------------57--------------------------|
E|-------555---555---57--753-33333333-2222222-555--| 

G|-------------------------------------|
D|-------------------------------------|
A|----------57-------------------------|
E|--555---57--753-33333333-2222222-5r--|


Verse 1 
(Ainda falta o sol se pôr...)

G|-------------------------------------------|
D|------------------5575---------------------|
A|----------------------7--------------------|
E|------33--22--33-------555--33--22--33-----|


Chorus
(Tudo o que eu penso...)

G|---------------------------------------|
D|---------------------------------------|
A|---------------------------------------|
E|--55555555-33333333-2222222-33-333-33--| 

(E você diz que o longe não...)

G|--------------------------------------|
D|--------------------------------------|
A|--------------------------------------|
E|--55555555-00000000-33333333-222-222--| 

(E eu te digo, então...)

G|-------------------------------------------|
D|-------------------------------------------|
A|-----------77777777------------------------|
E|--55555555----------33333333-222-222-223r--| 

(Geral por perto...)

G|--------------------------------------------|
D|--------------------------------------------|
A|--------------005750------------------------|
E|--555---555---------3-33333333-2222222-555--| 

(E é por você meu sentimento...)

G|----------------------------------|
D|----------------------------------|
A|--------005750--------------------|
E|--555---------3-33333333-2222222--| 


Chorus
(Tudo o que eu penso...)

G|---------------------------------------|
D|---------------------------------------|
A|---------------------------------------|
E|--55555555-33333333-2222222-33-333-33--| 

(E você diz que o longe não...)

G|--------------------------------------|
D|--------------------------------------|
A|--------------------------------------|
E|--55555555-00000000-33333333-222-222--| 

(E eu te digo, então...)

G|-------------------------------------------|
D|-------------------------------------------|
A|-----------77777777------------------------|
E|--55555555----------33333333-222-222-223r--| 


Bridge
(Com você viajar o mundo...)


G|-----------------------------------------------------------------------|
D|---------------------------------------9-9-9------12--12--12-----------|
A|-----------------------------7-7-7---77-7-7---1010--10--10----999------|
E|---------------------------55-5-5---------------------------------15\--| 


Instrumental

G|---------------|
D|---------------|
A|---------------|
E|--55-00-33-22--|

G|---------------|
D|---------------|
A|---------------|
E|--55-00-33-33--|

G|---------------|
D|---------------|
A|---------------|
E|--55-00-33-22--|

                       (...e você diz que o longe não...)

G|--------------------------------------------------------|
D|---------------------------------------------55-555-55--|
A|--------------------------------------------------------|
E|--55-00-3r--3/6r--5r------------------------------------|


Chorus
(E você diz que o longe não...)

G|---------------------------------------|
D|---------------------------------------|
A|---------------------------------------|
E|--55555555-00000000-33333333-22222222--| x2


Ending

G|-----------------|
D|-----------------|
A|--------5575-----|
E|--333-------05r--|



-----------------------------------------------------------------------------
                             3. Quando Eu Voltar
-----------------------------------------------------------------------------

Tabbed by: JimBlenderBR

 - Give your rating and help others users to find the best versions of the songs - 

r = Let it Ring


Intro

G|--------------------------------------------|
D|--------------------------------------------|
A|-Just Guitar----------22xx22x2-/-77xx77-76--|
E|--------------------------------------------|  x2


Verse 1
(Eu quero ter você...)

G|------------------|
D|------------------|
A|-22--2-/-77--6-\--|
E|------------------|  x2


Pre-Chorus
(Porquê você...)

G|--------------------------------|
D|----------44-22222222-44444444--|
A|-22222222-----------------------|
E|--------------------------------|


Chorus
(Será que quando eu voltar...)

G|-------------------------------------|
D|----------44444444-------------------|
A|-22222222-------------------7r---66--|
E|-------------------44444444----------|  

G|-------------------------------------|
D|-------------------------------------|
A|-22222222-------------------7r---6\--|
E|----------22222222-44444444----------|  


Post-Chorus

G|------------------------------------|
D|------------------------------------|
A|-22222222-6666666-77777777----------|
E|---------------------------444-222--|  


Verse 1
(Eu quero te dizer...)

G|------------------|
D|------------------|
A|-22--2-/-77--6-\--|
E|------------------|  x2


Pre-Chorus
(Porquê eu não sei...)

G|--------------------------------|
D|----------44-22222222-44444444--|
A|-22222222-----------------------|
E|--------------------------------| x2


Chorus
(Será que quando eu voltar...)

G|-------------------------------------|
D|-------------------------------------|
A|-22222222-------------------7r---66--|
E|----------22222222-44444444----------|  

G|---------------------------------------|
D|-----------------------------------6r--|
A|-22222222-------------------7r---77----|
E|----------22222222-44444444------------|  


Bridge
(Se não é você...)

G|------------------------------|
D|--4r--2r----------------------|
A|------------------------------|
E|----------444-4-222-2-00-000--|  

(Que te faz rir...)

G|-------------------------------|
D|-------------------2--2--2--2--|
A|-2222222h4---------------------|
E|-----------22222-00-00-00-00---|  

G|-----------------------------------------|
D|------24-46-------9--9--9--9-------------|
A|-22-24------467-77-77-77-77--9999999999--|
E|-----------------------------------------|  

Chorus
(Será que quando eu voltar...)

G|--------------------------------------------------------|
D|---4--4--4--4----11-11-11-11-----------------9--9--9----|
A|-22-22-22-22---99-99-99-99----6--6--6--6--77-77-77--77--|
E|----------------------------44-44-44-44-----------------|  

G|---------------------------------------------------------------|
D|---4--4--4--4----11-11-11-11-----------------9--9--9--9--------|
A|-22-22-22-22---99-99-99-99----6--6--6--6--77-77-77--77--2202r--|
E|----------------------------44-44-44-44------------------------| 

G|--------------------------------------------------|
D|-----------11-11-11-11-----------------9--9--9----|
A|-Break---99-99-99-99----6--6--6--6--77-77-77--77--|
E|----------------------44-44-44-44-----------------| 

G|--------------------------------------------------------|
D|---4--4--4--4----11-11-11-11----------------------------|
A|-22-22-22-22---99-99-99-99----6--6--6--6--777-777--7----|
E|----------------------------44-44-44-44-------------7r--| 



-----------------------------------------------------------------------------
                             4. Faça Valer
-----------------------------------------------------------------------------

Tabbed by: JimBlenderBR

 - Give your rating and help others users to find the best versions of the songs - 

r = Let it Ring


Intro

G|------------------------------------|
D|------------------------------------|
A|-----------55555555----------33-33--|
E|--33333333----------33333333--------| 

G|----------------------------------|
D|----------------------------------|
A|-----------55555555-333333333333--|
E|--00000000------------------------| 

G|------------------------------------|
D|------------------------------------|
A|-----------55555555----------33-33--|
E|--33333333----------33333333--------| 

G|----------------------------------|
D|----------------------------------|
A|-----------55555555-333333333333--|
E|--00000000------------------------| 


Verse 1
(Faça Valer...)

G|-----------------------------|
D|-----------------------------|
A|---------5-555--------33-33--|
E|--333-33-------333-33--------| x2


Pre-Chorus
(Vem fazer valer...)

G|---------------------------------------|
D|---------------------------------------|
A|-----------55555555-22222222-33333333--|
E|--33333333-----------------------------|

G|---------------------------------------|
D|---------------------------------------|
A|-----------55555555-22222222-33333333--|
E|--33333333-----------------------------|

G|-------------------------|
D|-------------------------|
A|-----------333333-55-55--|
E|--00000000---------------|


Post-Chorus

G|------------------------------------|
D|------------------------------------|
A|-----------55555555----------33-33--|
E|--33333333----------33333333--------| 

G|----------------------------------|
D|----------------------------------|
A|-----------55555555-333333333333--|
E|--00000000------------------------| 


Verse 1
(Eu posso até me machucar...)

G|-----------------------------|
D|-----------------------------|
A|---------5-555--------33-33--|
E|--333-33-------333-33--------| x2


Pre-Chorus
(Porque alguém vai me julgar...)

G|---------------------------------------|
D|---------------------------------------|
A|-----------55555555-22222222-33333333--|
E|--33333333-----------------------------|

G|---------------------------------------|
D|---------------------------------------|
A|-----------55555555-22222222-33333333--|
E|--33333333-----------------------------|

G|---------------------------|
D|---------------------------|
A|-------------3-3-3-3-3-5r--|
E|--0000000000---------------|


Chorus
(Daqui pra frente...)

G|---------------------------------------------------------------------------|
D|-------------------------------------------9----7--------------------------|
A|-----------333333-55----------333333-55-777--555--33333333------5r--55-3r--|
E|--33333333-----------33333333-------------------------------3r-------------|


Bridge

G|------7--7--7--7---4--4--4--4----------------------------|
D|----55-55-55-55--22-22-22-22----2--2--2--2---5--5--5--5--|
A|------------------------------00-00-00-00--33-33-33-33---|
E|---------------------------------------------------------|

G|------7--7--7--7---4--4--4--4--------------------------|
D|----55-55-55-55--22-22-22-22----2--2--2--2---55555555--|
A|------------------------------00-00-00-00--------------|
E|-------------------------------------------------------|


Chorus
(Daqui pra frente...)

G|---------------------------------------|
D|---------------------------------------|
A|--------------------00000000-33333333--|
E|--33333333-00000000--------------------|

G|---------------------------------------------|
D|---------------------------------------------|
A|--------------------000-000-000-333-333-555--|
E|--33333333-00000000--------------------------|

(Daqui pra frente...)

G|---------------------------------------------------------------------------|
D|-------------------------------------------9----7--------------------------|
A|-----------333333-55----------333333-55-777--555--33333333------5r--55-3r--|
E|--33333333-----------33333333-------------------------------3r-------------|




-----------------------------------------------------------------------------
                             5. A Vida Que Eu Quero
-----------------------------------------------------------------------------

Tabbed by: JimBlenderBR

 - Give your rating and help others users to find the best versions of the songs - 

r = Let it Ring


Intro -

G|--------------|
D|--------------|
A|--0r------5r--|
E|--------------|  x2

G|----------------------|
D|----------------------|
A|--00000000-555555777--|
E|----------------------|  x2


Verse -

G|--------------|
D|--------------|
A|--0r--2r--5r--|
E|--------------|  x2

G|-------------------------|
D|-------------------------|
A|--0000000000-5555555555--|
E|-------------------------|  x2


Pre-Chorus -

G|-------------------------|
D|-------------------------|
A|--2222222222-5555555555--|
E|-------------------------|  


Chorus -

G|-----------------------|
D|-----------------------|
A|--0000-5555-2222-5555--|
E|-----------------------|  

G|---------------------|
D|---------------------|
A|--0000-5555-2222-5r--|
E|---------------------|  

G|-----------------------|
D|-----------------------|
A|----------55555555777--|
E|--222-000--------------| 

G|-------------------------------|
D|-------------------------------|
A|----------5555555555-579r--7r--|
E|--222-000----------------------| 
 

Post-Chorus - 

G|----------------------|
D|----------------------|
A|--00000000-555555777--|
E|----------------------|  x2


Verse -

G|--------------|
D|--------------|
A|--0r--2r--5r--|
E|--------------|  x2

G|-------------------------|
D|-------------------------|
A|--0000000000-5555555555--|
E|-------------------------|  x2


Pre-Chorus -

G|-------------------------|
D|-------------------------|
A|--2222222222-5555555555--|
E|-------------------------|  


Chorus -

G|-----------------------|
D|-----------------------|
A|--0000-5555-2222-5555--|
E|-----------------------|  

G|---------------------|
D|---------------------|
A|--0000-5555-2222-5r--|
E|---------------------|  

G|-----------------------|
D|-----------------------|
A|----------55555555777--|
E|--222-000--------------| 

G|-------------------------------|
D|-------------------------------|
A|----------5555555555-579r--7r--|
E|--222-000----------------------| 


Bridge - 

G|-----------------------------------2r-----------7----|
D|----------------------------------0--------------5r--|
A|--0r--------00000r--------00000r--------00000r-------|
E|-----------------------------------------------------| 


Ending -

G|---------------7-7-7h9--|
D|---7-7---7--------------|
A|-------7---7-5----------|
E|--5---------------------|  x6



-----------------------------------------------------------------------------
                             6. Divina Comédia
-----------------------------------------------------------------------------

 - Intro:
G|----------------------------------------------|
D|----------------------------------------------|
A|-0-55-----0-5540------------------------------|
E|----------------------------------------------|

G|-----------------------------------------------------|
D|-----14-12-11-------14h16-----4---754--------679-----|
A|-0-0----------12-12---------5---5-----5h7--7-----7-0-|
E|-----------------------------------------------------|

G|---------------------------------------------------|
D|-----14-12-11-------14h16--------------------------|
A|-0-0----------12-12---------5-5457542--------------|
E|--------------------------------------2------------|

G|-----------------------------------------------------|
D|-----14-12-11-------14h16-----4---754--------679-----|
A|-0-0----------12-12---------5---5-----5h7--7-----7-0-|
E|-----------------------------------------------------|

G|------------------------------------9---10---------|
D|-----14-12-11-------14h16--------------------------|
A|-0-0----------12-12---------5-545-7---8----9-------|
E|---------------------------------------------------|


 - Verse:
(Ahhh, se voce descobrisse...)
G|------------------------------------9---10--------------------------------------------|
D|----------------7--7--------------------------------------------------------7--7------|
A|--------------7------7----7-7---7-7---8----9-9---9-9---9-5-5---5-5---5----7------7----|
E|----------5-5----------5------7----------------9-----9-------5-----5----5----------5--|

(As estrelas, mudo meus planos...)
G|----------------------------------------------|
D|----------------------------------------------|
A|-7-7---7-7---7--------------------------------|
E|-----7-----7----------------------------------|


 - Chorus:
(Quanto tempo faz?...)
G|-------------------------------------------------------------------------------------------|
D|-----77754--------99976--------7--7-----------------------------------7--------------------|
A|-555-------5--777-------7----7------7----9-9---9-9---9--5-5---5-5---7---7-7---7-7---7------|
E|---------------------------5----------5------9-----9--------5-----5---------7-----7--------|

(Que me da tudo que eu preciso...)
G|---------------------------------------------------------------------|
D|---------------------------------------------------------------------|
A|-------------------97979797-797979--5050505-050505-------------------|
E|-97979797-79797979---------------------------------0-0-0-0-0-0-4-----|


 - Intro:
G|-----------------------------------------------------|
D|-----14-12-11-------14h16-----4---754--------679-----|
A|-0-0----------12-12---------5---5-----5h7--7-----7-0-|
E|-----------------------------------------------------|

G|---------------------------------------------------|
D|-----14-12-11-------14h16----------------15--------|
A|-0-0----------12-12---------5-4-5------------------|
E|-------------------------------------13------------|


 - Verse 2
(Ahh, se voce me...)
G|----------------------------------------9---10---|
D|-------------------------------------------------|
A|-9-9---9-9---9-5-5---5-5---5----------7---8------|
E|-----9-----9-------5-----5----5----0-------------|


(Mas eu não desanimaria...) 
G|-------------------------------------------------------------|
D|---------------------------------7--7-----7------------------|
A|-9-9---9-9---9-5-5---5-5---5---7------7-----7-7---7-7---7----|
E|-----9-----9-------5-----5---5----------5-------7-----7------|


 - Chorus:
(Quanto tempo faz?...)
G|-------------------------------------------------------------------------------------------|
D|-----77754--------99976--------7--7-----------------------------------7--------------------|
A|-555-------5--777-------7----7------7----9-9---9-9---9--5-5---5-5---7---7-7---7-7---7------|
E|---------------------------5----------5------9-----9--------5-----5---------7-----7--------|

(Que me da tudo que eu preciso...)
G|---------------------------------------------------------------------|
D|---------------------------------------------------------------------|
A|-------------------97979797-797979--5050505-050505-------------------|
E|-97979797-79797979---------------------------------0-0-0-0-0-0-4-----|


 - Intro:
G|-----------------------------------------------------|
D|-----14-12-11-------14h16-----4---754--------679-----|
A|-0-0----------12-12---------5---5-----5h7--7-----7-0-|
E|-----------------------------------------------------|

G|---------------------------------------------------|
D|-----14-12-11-------14h16--------------------------|
A|-0-0----------12-12---------5-5457-----------------|
E|---------------------------------------------------|


 - Bridge:
(E assim como Dante...)
G|----------------------------------------------|
D|---------------4---------------2--------------|
A|------------------55-0h5----------------------|     2x
E|-55-0h5---22-0------------00-0----------------|

(O amor me move...)
G|----------------------------------------------|
D|----------------------------------------------|
A|----------5-5-5--7-7-7---------------5--7-----|
E|--5---2-----------------5-5-5--2-2-2------0---|


 - Chorus:
(Quanto tempo faz?...)
G|---------------------------------7-------------|
D|-------------------------4---------------------|
A|-5---5h7---4424424----------55055---7707-------|
E|--------------------22022----------------------|

(Que me da tudo que eu preciso...)
G|---------------------------------------------------------------------|
D|-----------------------------------------------------------------6---|
A|-------------------97979797-797979--5050505-050505-------------------|
E|-97979797-79797979---------------------------------0-0-0-0-0-0-4-----|


 - Intro:
G|-----------------------------------------------------|
D|-----14-12-11-------14h16-----4---754--------679-----|
A|-0-0----------12-12---------5---5-----5h7--7-----7-0-|
E|-----------------------------------------------------|

G|---------------------------------------------------|
D|-----14-12-11-------14h16--------------------------|
A|-0-0----------12-12---------5-5457542--------------|
E|--------------------------------------2------------|

G|-----------------------------------------------------|
D|-----14-12-11-------14h16-----4---754--------679-----|
A|-0-0----------12-12---------5---5-----5h7--7-----7-0-|
E|-----------------------------------------------------|

G|---------------------------------------------------|
D|-----14-12-11-------14h16--------------------------|
A|-0-0----------12-12---------5-5457-7-5-4-2-0-------|
E|---------------------------------------------------|

G|----------------------------------------------|
D|----------------------------------------------|
A|-0--7-5-4-------------------------------------|
E|----------5--0-5------------------------------|



-----------------------------------------------------------------------------
                           7. Entao Vai 
-----------------------------------------------------------------------------
Tabbed by: Jim BlenderBR


Verse 1
(Quero viver contigo...)

G|----------------------------------|
D|----------------------------------|
A|--0000-777--2222-5555--0000-777---|
E|----------------------------------|

(Vamos rumo a Zion...)

G|----------------------------------------|
D|----------------------------------------|
A|--22222222-55555555-----------55555555--|
E|---------------------22222222-----------|

-  Chorus
(Então Vai...)

G|--------------------------------------------|
D|--------------------------------------------|
A|--0000-7777-55555555--0000-7777-2222-5555---|
E|--------------------------------------------| x2

Verse 2
(Se tudo pode acontecer...)

G|--------------------------------------------|
D|--------------------------------------------|
A|--0000-777--2222-5555--0000-777--2222-5555--|
E|--------------------------------------------|

(Mas se nada der certo...)

G|----------------------------------|
D|----------------------------------|
A|--0000-777--2222-5555--0000-777---|
E|----------------------------------|

(Alto Paraíso , Ilha Grande , Pratigi...)

G|----------------------------------------|
D|----------------------------------------|
A|--22222222-55555555-----------55555555--|
E|---------------------22222222-----------|

-  Chorus
(Então Vai...)

G|--------------------------------------------|
D|--------------------------------------------|
A|--0000-7777-55555555--0000-7777-2222-5555---|
E|--------------------------------------------| x2

 -  Brigde
(Se esse mundo te assusta...)

G|--------------------------------------------------------|
D|--------------------------------------------------------|
A|-----------55555555-00-00-00-00-77-77-77-77-22222222-5--|
E|--22222222----------------------------------------------|

G|---------------------------------------------------|
D|---------------------------------------------------|
A|---------------------------------------------------|
E|-22-22-22-22-22-33-33-33--22-22-22-22-22-55-55-55--|

G|-------------------------------------------------------------|
D|-------------------------------------------------------------|
A|-----------------22-22-22-22-22--44-44-44-44-44--------------|
E|-44-44-44-44-44---------------------------------00-00-00-00--|

-  Chorus
(Então Vai...)

G|-------------------------------------------|
D|-------------------------------------------|
A|--2222-9999-77777777--2222-9999-6666-7777--|
E|-------------------------------------------|

G|-------------------------------------------|
D|-------------------------------------------|
A|--2222-9999-77777777--2222-9999-6666-7-----|
E|-------------------------------------------|



-----------------------------------------------------------------------------
                           8. Mais Um Dia 
-----------------------------------------------------------------------------

Tabbed by: JimBlenderBR

 - Give your rating and help others users to find the best versions of the songs - 

r = Let it Ring


Intro   

G|-----------------------------------------|
D|-----------------------------------------|
A|--00000000-2-44444444-55555555-77777777--|
E|-----------------------------------------|  x2


Verse 1
(Mais um dia se passou...)

G|-------------------------------|
D|-------------------------------|
A|---------------------77777777--|
E|-------------------------------|  

(Pra que tanta ilusão...)

G|---------------------------------------|
D|---------------------------------------|
A|--00000000-44444444-55555555-77777777--|
E|---------------------------------------| 


Chorus

(E por muito eu esperei...)

G|---------------------------------------|
D|---------------------------------------|
A|--22222222-55555555-00000000-77777777--|
E|---------------------------------------| x2

(Mas se um dia olhar pra trás...)

G|---------------|
D|---------------|
A|--22222222-5r--|
E|---------------| 


Instrumental

G|-----------------------------------------|
D|-----------------------------------------|
A|--00000000-2-44444444-55555555-77777777--|
E|-----------------------------------------|  x2


Verse 1
(Mais um dia se passou...)

G|---------------------------------------|
D|---------------------------------------|
A|--00000000-44444444-55555555-77777777--|
E|---------------------------------------| x2


Chorus

(E por muito eu esperei...)

G|---------------------------------------|
D|---------------------------------------|
A|--22222222-55555555-00000000-77777777--|
E|---------------------------------------| x2

(Mas se um dia olhar pra trás...)

G|---------------|
D|---------------|
A|--22222222-5r--|
E|---------------| 


Bridge

G|----------------------------------|
D|---2--2----6--6----7--7----9--9---|
A|--0--0-2/4---4-4/5---5-5/7---7-7--|
E|----------------------------------|  x3

(Se eu acordar..)

G|-------------------------------------------|
D|-------------------------------------------|
A|--00000000-2-44444444-55555555-0-77777777--|
E|-------------------------------------------| x2


Chorus
(E por muito eu esperei...)

G|-----------------------------------------------|
D|---------------------2-2-2-2-2-2--9-9-9-9-9-9--|
A|--22222222-55555555-0-0-0-0-0-0--7-7-7-7-7-7---|
E|-----------------------------------------------| x2

(Mas se um dia olhar pra trás...)

G|---------------|
D|---------------|
A|--22222222-5r--|
E|---------------| 



-----------------------------------------------------------------------------
                           9. Você Mudou
-----------------------------------------------------------------------------

Tabbed by: JimBlenderBR

 - Give your rating and help others users to find the best versions of the songs - 

r = Let it Ring



Verse 1
(Mas agora chego ao fim...)

G|---------------------|
D|---------------------|
A|---------------------|
E|--22222222-00000000--|


Pre-Chorus
(E enquanto eu me refaço...)

G|-----------------------------------------------------------|
D|-----------------------------------------------------------|
A|--22222222-55555555----------------------------------------|
E|--------------------55-55-55-55-55-5-5-00-00-00-00-00-0-0--|

(Mas a história da minha vida...)

G|---------------------|
D|---------------------|
A|--22222222-55555555--|
E|---------------------|


Chorus
(Que você fez...)

G|-----------------------------------------|
D|-----------------------------------------|
A|--00000000-------------------5555-55-55--|
E|-----------00000000-22222222-------------|

G|------------------------------------------|
D|------------------------------------------|
A|--00000000-------------------55-55-55-----|
E|-----------0000-1111-22222222---------5r--|


Verse 2
(Não reconheço a minha pequena...)

G|----------------|
D|----------------|
A|----------------|
E|--55-55--44-44--|

(Pra onde foi o amor...)

G|---------------------|
D|---------------------|
A|---------------------|
E|--22222222-00000000--|

(Sei que isso é meu problema...)

G|--------------------------------------|
D|--------------------------------------|
A|--------------------------------------|
E|--55555555-44444444-22222222-0000000--|


Pre-Chorus
(E enquanto eu me refaço...)

G|-----------------------------------------------------------|
D|-----------------------------------------------------------|
A|--22222222-55555555----------------------------------------|
E|--------------------55-55-55-55-55-5-5-00-00-00-00-00-0-0--|

(Mas a história da minha vida...)

G|---------------------|
D|---------------------|
A|--22222222-55555555--|
E|---------------------|


Chorus
(Que você fez...)

G|-----------------------------------------|
D|-----------------------------------------|
A|--00000000-------------------5555-55-55--|
E|-----------00000000-22222222-------------|

G|------------------------------------------|
D|------------------------------------------|
A|--00000000-------------------55-55-55-----|
E|-----------0000-1111-22222222---------5r--|


Bridge
(Só quero que você entenda...)

G|------------------------------------------------|
D|------------------------------------------------|
A|--------------------------------------------5r--|
E|--555-5-5-5-5-5-444-4-4-4-4-4-222-2-2-2-2-2-----|

G|-----------------------------------------------------77777777--|
D|---------------------------------------------------------------|
A|--------------------------------------------5r--05r------------|
E|--555-5-5-5-5-5-444-4-4-4-4-4-222-2-2-2-2-2--------------------|


Chorus
(Você fez...)

G|-----------------------------------------|
D|-----------------------------------------|
A|-Break-----------------------5555-55-55--|
E|-----------00000000-22222222-------------|

G|----------------------------------------------|
D|----------------------------------------------|
A|--00000000--------------------5555-17171717*--|
E|-----------0000-1111-22222222-----------------|  *Seventeen. Not one and seven

G|----------------------------------------|
D|----------------------------------------|
A|-00000000-------------------5555-55-55--|
E|----------00000000-22222222-------------|

G|-------------------------------------------|
D|-------------------------------------------|
A|--00000000--------------------55555555-----|
E|-----------0000-1111-22222222----------5r--|



-----------------------------------------------------------------------------
                           10. Pelo Tempo Que For
-----------------------------------------------------------------------------

Tabbed by: Jim-BlenderBR
 - Please rate and send me your feedback -
 
Intro

G|------------------------------------------|
D|------------------------------------------|
A|----------------------------------5/17\5--|
E|------------------------------------------|

-  Verse 1 
(Aah, eu esperei tanto tempo...)

G|---------------------------------------|
D|------------------------------------5--|
A|----5-----------------5----------------|
E|-------------3-----------------3-------|

G|------7-----7----75-----------------------|
D|-------------------75---5----5----53------|
A|----55----05------------------------53----|
E|----------------------33---03-------------| 

G|------7-----7----75-----------------------|
D|-------------------75---5----5------------|
A|----55----05-----------------------5------|
E|----------------------33---03----------3--| 

(Ah, eu por um lado te entendo, morena...)

G|---------------------------------------|
D|------------------------------------5--|
A|----5-----------------5----------------|
E|-------------3-----------------3-------|

G|------7-----7----75-----------------------|
D|-------------------75---5----5----53------|
A|----55----05------------------------53----|
E|----------------------33---03-------------| 

G|------7-----7----75-----------------------|
D|-------------------75---5----5------------|
A|----55----05------------------------------|
E|----------------------33---03------32-----| 

Pre-Chorus
(Quero tentar te conhecer...)

G|--------------------------------------------|
D|-------------------------------------55-----|
A|------------2222-3333-5555-7777-------------|
E|--------32----------------------3333--------|

Chorus
(Sei que não é mais fácil assim...)

G|-----------------------------------------------------------------|
D|---------------------------------------------------------55-555--|
A|-55-55-55-55-555-00-00-00-00-000-22-22-22-22-222-----------------|
E|-------------------------------------------------33-33-33--------|

G|-------------75-------------------------------------------------|
D|---------------75-----------------------------------------------|
A|-55-55-55-55------00-00-00-00-000-01-22-22-22-----0-------------|
E|----------------------------------------------3-2---------------|

Post-Chorus

G|------------|
D|------------|
A|----5-------|
E|------------|

-  Verse 2
(Aah, os seus defeitos eu invento...)

G|---------------------------------------|
D|------------------------------------5--|
A|----5-----------------5----------------|
E|-------------3-----------------3-------|

G|------7-----7----75-----------------------|
D|-------------------75---5----5----53------|
A|----55----05------------------------53----|
E|----------------------33---03-------------| 

G|------7-----7----75-----------------------|
D|-------------------75---5----5------------|
A|----55----05------------------------------|
E|----------------------33---03------32-----| 

Pre-Chorus
(Quero tentar te conhecer...)

G|--------------------------------------------|
D|-------------------------------------55-----|
A|------------2222-3333-5555-7777-------------|
E|--------32----------------------3333--------|

Chorus
(Sei que não é mais fácil assim...)

G|-----------------------------------------------------------------|
D|---------------------------------------------------------55-555--|
A|-55-55-55-55-555-00-00-00-00-000-22-22-22-22-222-----------------|
E|-------------------------------------------------33-33-33--------|

G|-------------75-------------------------------------------------|
D|---------------75-----------------------------------------------|
A|-55-55-55-55------00-00-00-00-000-01-22-22-22-----0-------------|
E|----------------------------------------------3-2---------------|

Post-Chorus

G|-----------------------|
D|-----------------------|
A|----55555555-----------|
E|-------------33333333--|

Bridge (Guitar Solo)

G|---------------------------------------------|
D|---------------------------------------------|
A|-55555555--00000000--2222222222-20-----------|
E|-----------------------------------33333333--|

G|------7777-----------7777--------------------------|
D|--------------------------5750---------------------|
A|-5555------57575--0000---------022222222---0---5---|
E|-----------------------------------------32--------|

Chorus
(Sei que não é mais fácil assim...)

G|-----------------------------------------------------------------|
D|---------------------------------------------------------55-555--|
A|-55-55-55-55-555-00-00-00-00-000-22-22-22-22-222-----------------|
E|-------------------------------------------------33-33-33--------|

G|-------------75----------------------------------------------------|
D|---------------75--------------------------------------------------|
A|-55-55-55-55------00-00-00-00-000-01-22-22-22-222------------------|
E|--------------------------------------------------33-33-33-33-333--|

G|-----------------------------------------------------------------|
D|---------------------------------------------------------55-555--|
A|-55-55-55-55-555-00-00-00-00-000-22-22-22-22-222-----------------|
E|-------------------------------------------------33-33-33--------|

G|-------------75-------------------------------------------------|
D|---------------75-----------------------------------------------|
A|-55-55-55-55------00-00-00-00-000-01-22-22-22-----0-------------|
E|----------------------------------------------3-2---------------|



-----------------------------------------------------------------------------
                              12. Sissy 
-----------------------------------------------------------------------------

Tabbed by: JimBlenderBR

 - Give your rating and help others users to find the best versions of the songs - 

r = Let it Ring


Intro -

G|---------------------|
D|--4-4----6-6---------|
A|-----6--6---4-4-4-4--|
E|---------------------|  x4


(Só um minuto por favor...)

G|-------------------------------|
D|-------------------------------|
A|---------666666--------444444--|
E|--222222--------444444---------|  x4


(Por mim, até...)

G|-----------------------------|
D|-----------------------------|
A|--222-6-4-444-999999-666666--|
E|-----------------------------|  x2


(Vamos bailar desnudos...)

G|---------------------------------------------------|
D|---------------------------------------------------|
A|--222222-444444-999-888-666-444-2222222222-444444--|
E|---------------------------------------------------|  


Interlude -

G|---------------------------------------------|
D|--4r----4676-6-------------------------------|
A|------------4---------------07r--6r----------|
E|--------------44r--45r-55------------7r--9r--|  

G|-----------------------------------------|
D|------------------------------------4h6--|
A|----4676-6--------------07r--6r--4h6-----|
E|--------4-44r--45r-55--------------------|  


Intro -

G|---------------------|
D|--4-4----6-6---------|
A|-----6--6---4-4-4-4--|
E|---------------------|  x4


(Por mim, até...)

G|-----------------------------|
D|-----------------------------|
A|--222-6-4-444-999999-666666--|
E|-----------------------------|  x2


(Ich will ein kind von dir und...)

G|-------------------------------------------------------|
D|-------------------------------------------------------|
A|--222222-444444-999-888-666-444-2222222222-444444------|
E|--------------------------------------------------02r--|  



-----------------------------------------------------------------------------
                              14. Morena
-----------------------------------------------------------------------------

Tabbed By: Fabio BlenderBR
 - Give your rating and help others users to find the best versions of the songs -

 - Intro:
G|-------------------------------------------|
D|----------6--------------------------------|
A|-7-7--------7-8----------------------------|
E|------9-8----------------------------------|

 - Verse:
(Sabe, eu sei que errei...)
G|--------|-------|---------|--1----|---------|--------4--|--------------------|
D|-4---4--|-------|-2----2--|-------|------2--|------4----|--2-2---2-4-2-1-2---|
A|---4----|--2-2--|----2----|----4--|--0-0----|--2-2------|------2-------------|
E|--------|-------|---------|-------|---------|-----------|--------------------|

(Ja fiz de tudo...)
G|--------|-------|---------|--1----|---------|--------4--|--------------------|
D|-4---4--|-------|-2----2--|-------|------2--|------4----|--2-2---2-----------|
A|---4----|--2-2--|----2----|----4--|--0-0----|--2-2------|------2---7/1-------|
E|--------|-------|---------|-------|---------|-----------|--------------------|

 - Chorus:
(E agora vem dizer, morena...)
G|-2------------|-------------------------|
D|---2----------|-2-2---2-------2---------|
A|-----0-0-2-2--|-----2---4---4-----------|
E|--------------|-----------4-------------|

G|-2------------|-------------------------|
D|---2----------|-2-2---2-4-2-1-2---------|
A|-----0-0-2-2--|-----2-------------------|
E|--------------|-------------------------|

(E agora vou dizer, morena...)
G|-2------------|-------------------------|
D|---2----------|-2-2---2-------2---------|
A|-----0-0-2-2--|-----2---4---4-----------|
E|--------------|-----------4-------------|

G|-2------------|-------------------------|
D|---2----------|-2---2-----9-7-6-4-2-----|
A|-----0-0-2-2--|---2---------------------|
E|--------------|-------------------------|

 - Verse 2:
(E eu me lembro, de nos dois juntos...)
G|--------|-------|---------|--1----|---------|--------4--|--------------------|
D|-4---4--|-------|-2----2--|-------|------2--|------4----|--2-2---2-4-2-1-2---|
A|---4----|--2-2--|----2----|----4--|--0-0----|--2-2------|------2-------------|
E|--------|-------|---------|-------|---------|-----------|--------------------|

(E aquele beijo la pra fim de julho...)
G|--------|-------|---------|--1----|---------|--------4--|--------------------|
D|-4---4--|-------|-2----2--|-------|------2--|------4----|--2-2---2-----------|
A|---4----|--9/2--|----2----|----4--|--0-0----|--2-2------|------2---7/1-------|
E|--------|-------|---------|-------|---------|-----------|--------------------|

 - Chorus:
(E agora vem dizer, morena...)
G|-2------------|-------------------------|
D|---2----------|-2-2---2-------2---------|
A|-----0-0-2-2--|-----2---4---4-----------|
E|--------------|-----------4-------------|

G|-2------------|-------------------------|
D|---2----------|-2-2---2-4-2-1-2---------|
A|-----0-0-2-2--|-----2-------------------|
E|--------------|-------------------------|

(E agora vou dizer, morena...)
G|-2------------|-------------------------|
D|---2----------|-2-2---2-------2---------|
A|-----0-0-2-2--|-----2---4---4-----------|
E|--------------|-----------4-------------|

G|-2------------|--4-2-1-2-1--------------|
D|---2----------|------------4-2-2/3------|
A|-----0-0-2-2--|-------------------------|
E|--------------|-------------------------|


 - Bridge:
(Solo)
G|--------|-------|---------|--1----|---------|--------4--|--------------------|
D|-4---4--|-------|-2----2--|-------|------2--|------4----|--2-2---2-4-2-1-2---|
A|---4----|--2-2--|----2----|----4--|--0-0----|--2-2------|------2-------------|
E|--------|-------|---------|-------|---------|-----------|--------------------|

G|--------|-------|---------|--1----|---------|-----------------|
D|-4---4--|-------|-2----2--|-------|------2--|--------4--------|
A|---4----|--2-2--|----2----|----4--|--0-0----|--0-2-2---2/4----|
E|--------|-------|---------|-------|---------|-----------------|

G|-------------11-11--|------------9-----|----------------------------------|
D|-------11-11--------|--------9-9---9---|-------------------6--------------|
A|-7/9-9--------------|--7-7-7-----------|-2-2-2-2-2-2---4-4---4---4-4------|
E|--------------------|------------------|-----------------------4----------|

(Sabe la quem vai...)
G|-----11-----------------6---|---------------------------|
D|-4/9----11\1--------6-6---6-|----------------------2----|
A|--------------4-4-4---------|-2-2-2-2---2-2-2-2--2------|
E|----------------------------|---------------------------|


 - Chorus:
(E agora vem dizer, morena...)
G|--------------|--------------------------|
D|--------------|--------------------------|
A|--0-----2-----|-------4-4----4-----------|
E|--------------|-4-4--------4-------------|

G|-2------------|-------------------------|
D|---2----------|-2-2---2-4-2-1-2---------|
A|-----0-0-2-2--|-----2-------------------|
E|--------------|-------------------------|

(E agora vem dizer, morena...)
G|-2------------|-------------------------|
D|---2----------|-------6-------2---------|
A|-----0-0-2-2--|-----6---4-2-4-----------|
E|--------------|-4-4---------------------|

G|-2------------|-------------------------|
D|---2----------|-2-2---2-4-2-1-2---------|
A|-----0-0-2-2--|-----2-------------------|
E|--------------|-------------------------|


(La ra ra raia...)
G|-2--------4--------10~--10-10-9-7----------|
D|---2--------4---------------------10-7-----|
A|-----0-0------2-2--------------------------|
E|-------------------------------------------|

G|-2-------4--------------------6------------|
D|---2-------4------2-2---2---6---6----------|
A|-----0-0-----2-2------2---4----------------|
E|-------------------------------------------|

G|-2------------|-----------------2~---------|
D|---2----------|-2-2---2-------2------------|
A|-----0-0-2-2--|-----2---4---4--------------|
E|--------------|-----------4----------------|
Добавлено: 22.10.2015
Другие материалы по этой песне:
  • Аккорды и текст

Страница создана 22.10.2015
http://primanota.ru/scracho/grande-bola-azul-album-chords.htm
Привет, Гость.
Предлагаем пройти революционный курс по гитаре.
Подарок от PrimaNota.Ru, забирай!