PrimaNota.ru - самый крупный в мире бесплатный архив песенных текстов, аккордов, табулатур и нот


Scracho - Faca Valer - бас-таба, видео

Регистрация Запомнить меня
Войти через:  Facebook Google Twitter Vk Yandex Mail.ru

Scracho - Faca Valer - бас-таба, видео

Печатать
Просмотров: 75
Tabbed by: JimBlenderBR

 - Give your rating and help others users to find the best versions of the songs - 

r = Let it Ring


Intro

G|------------------------------------|
D|------------------------------------|
A|-----------55555555----------33-33--|
E|--33333333----------33333333--------| 

G|----------------------------------|
D|----------------------------------|
A|-----------55555555-333333333333--|
E|--00000000------------------------| 

G|------------------------------------|
D|------------------------------------|
A|-----------55555555----------33-33--|
E|--33333333----------33333333--------| 

G|----------------------------------|
D|----------------------------------|
A|-----------55555555-333333333333--|
E|--00000000------------------------| 


Verse 1
(Faça Valer...)

G|-----------------------------|
D|-----------------------------|
A|---------5-555--------33-33--|
E|--333-33-------333-33--------| x2


Pre-Chorus
(Vem fazer valer...)

G|---------------------------------------|
D|---------------------------------------|
A|-----------55555555-22222222-33333333--|
E|--33333333-----------------------------|

G|---------------------------------------|
D|---------------------------------------|
A|-----------55555555-22222222-33333333--|
E|--33333333-----------------------------|

G|-------------------------|
D|-------------------------|
A|-----------333333-55-55--|
E|--00000000---------------|


Post-Chorus

G|------------------------------------|
D|------------------------------------|
A|-----------55555555----------33-33--|
E|--33333333----------33333333--------| 

G|----------------------------------|
D|----------------------------------|
A|-----------55555555-333333333333--|
E|--00000000------------------------| 


Verse 1
(Eu posso até me machucar...)

G|-----------------------------|
D|-----------------------------|
A|---------5-555--------33-33--|
E|--333-33-------333-33--------| x2


Pre-Chorus
(Porque alguém vai me julgar...)

G|---------------------------------------|
D|---------------------------------------|
A|-----------55555555-22222222-33333333--|
E|--33333333-----------------------------|

G|---------------------------------------|
D|---------------------------------------|
A|-----------55555555-22222222-33333333--|
E|--33333333-----------------------------|

G|---------------------------|
D|---------------------------|
A|-------------3-3-3-3-3-5r--|
E|--0000000000---------------|


Chorus
(Daqui pra frente...)

G|---------------------------------------------------------------------------|
D|-------------------------------------------9----7--------------------------|
A|-----------333333-55----------333333-55-777--555--33333333------5r--55-3r--|
E|--33333333-----------33333333-------------------------------3r-------------|


Bridge

G|------7--7--7--7---4--4--4--4----------------------------|
D|----55-55-55-55--22-22-22-22----2--2--2--2---5--5--5--5--|
A|------------------------------00-00-00-00--33-33-33-33---|
E|---------------------------------------------------------|

G|------7--7--7--7---4--4--4--4--------------------------|
D|----55-55-55-55--22-22-22-22----2--2--2--2---55555555--|
A|------------------------------00-00-00-00--------------|
E|-------------------------------------------------------|


Chorus
(Daqui pra frente...)

G|---------------------------------------|
D|---------------------------------------|
A|--------------------00000000-33333333--|
E|--33333333-00000000--------------------|

G|---------------------------------------------|
D|---------------------------------------------|
A|--------------------000-000-000-333-333-555--|
E|--33333333-00000000--------------------------|

(Daqui pra frente...)

G|---------------------------------------------------------------------------|
D|-------------------------------------------9----7--------------------------|
A|-----------333333-55----------333333-55-777--555--33333333------5r--55-3r--|
E|--33333333-----------33333333-------------------------------3r-------------|

Добавлено: 20.07.2015
Другие материалы по этой песне:
  • Аккорды и текст

Страница создана 20.07.2015
http://primanota.ru/scracho/faca-valer-chords.htm
Привет, Гость.
Предлагаем пройти революционный курс по гитаре.
Подарок от PrimaNota.Ru, забирай!