PrimaNota.ru - самый крупный в мире бесплатный архив песенных текстов, аккордов, табулатур и нот


Scracho - Divina Comedia - бас-таба, видео

Регистрация Запомнить меня
Войти через:  Facebook Google Twitter Vk Yandex Mail.ru

Scracho - Divina Comedia - бас-таба, видео

Печатать
Просмотров: 125
Tabbed By: Fabio BlenderBR
 - Give your rating and help others users to find the best versions of the songs -

 - Intro:
G|----------------------------------------------|
D|----------------------------------------------|
A|-0-55-----0-5540------------------------------|
E|----------------------------------------------|

G|-----------------------------------------------------|
D|-----14-12-11-------14h16-----4---754--------679-----|
A|-0-0----------12-12---------5---5-----5h7--7-----7-0-|
E|-----------------------------------------------------|

G|---------------------------------------------------|
D|-----14-12-11-------14h16--------------------------|
A|-0-0----------12-12---------5-5457542--------------|
E|--------------------------------------2------------|

G|-----------------------------------------------------|
D|-----14-12-11-------14h16-----4---754--------679-----|
A|-0-0----------12-12---------5---5-----5h7--7-----7-0-|
E|-----------------------------------------------------|

G|------------------------------------9---10---------|
D|-----14-12-11-------14h16--------------------------|
A|-0-0----------12-12---------5-545-7---8----9-------|
E|---------------------------------------------------|


 - Verse:
(Ahhh, se voce descobrisse...)
G|------------------------------------9---10--------------------------------------------|
D|----------------7--7--------------------------------------------------------7--7------|
A|--------------7------7----7-7---7-7---8----9-9---9-9---9-5-5---5-5---5----7------7----|
E|----------5-5----------5------7----------------9-----9-------5-----5----5----------5--|

(As estrelas, mudo meus planos...)
G|----------------------------------------------|
D|----------------------------------------------|
A|-7-7---7-7---7--------------------------------|
E|-----7-----7----------------------------------|


 - Chorus:
(Quanto tempo faz?...)
G|-------------------------------------------------------------------------------------------|
D|-----77754--------99976--------7--7-----------------------------------7--------------------|
A|-555-------5--777-------7----7------7----9-9---9-9---9--5-5---5-5---7---7-7---7-7---7------|
E|---------------------------5----------5------9-----9--------5-----5---------7-----7--------|

(Que me da tudo que eu preciso...)
G|---------------------------------------------------------------------|
D|---------------------------------------------------------------------|
A|-------------------97979797-797979--5050505-050505-------------------|
E|-97979797-79797979---------------------------------0-0-0-0-0-0-4-----|


 - Intro:
G|-----------------------------------------------------|
D|-----14-12-11-------14h16-----4---754--------679-----|
A|-0-0----------12-12---------5---5-----5h7--7-----7-0-|
E|-----------------------------------------------------|

G|---------------------------------------------------|
D|-----14-12-11-------14h16----------------15--------|
A|-0-0----------12-12---------5-4-5------------------|
E|-------------------------------------13------------|


 - Verse 2
(Ahh, se voce me...)
G|----------------------------------------9---10---|
D|-------------------------------------------------|
A|-9-9---9-9---9-5-5---5-5---5----------7---8------|
E|-----9-----9-------5-----5----5----0-------------|


(Mas eu não desanimaria...) 
G|-------------------------------------------------------------|
D|---------------------------------7--7-----7------------------|
A|-9-9---9-9---9-5-5---5-5---5---7------7-----7-7---7-7---7----|
E|-----9-----9-------5-----5---5----------5-------7-----7------|


 - Chorus:
(Quanto tempo faz?...)
G|-------------------------------------------------------------------------------------------|
D|-----77754--------99976--------7--7-----------------------------------7--------------------|
A|-555-------5--777-------7----7------7----9-9---9-9---9--5-5---5-5---7---7-7---7-7---7------|
E|---------------------------5----------5------9-----9--------5-----5---------7-----7--------|

(Que me da tudo que eu preciso...)
G|---------------------------------------------------------------------|
D|---------------------------------------------------------------------|
A|-------------------97979797-797979--5050505-050505-------------------|
E|-97979797-79797979---------------------------------0-0-0-0-0-0-4-----|


 - Intro:
G|-----------------------------------------------------|
D|-----14-12-11-------14h16-----4---754--------679-----|
A|-0-0----------12-12---------5---5-----5h7--7-----7-0-|
E|-----------------------------------------------------|

G|---------------------------------------------------|
D|-----14-12-11-------14h16--------------------------|
A|-0-0----------12-12---------5-5457-----------------|
E|---------------------------------------------------|


 - Bridge:
(E assim como Dante...)
G|----------------------------------------------|
D|---------------4---------------2--------------|
A|------------------55-0h5----------------------|     2x
E|-55-0h5---22-0------------00-0----------------|

(O amor me move...)
G|----------------------------------------------|
D|----------------------------------------------|
A|----------5-5-5--7-7-7---------------5--7-----|
E|--5---2-----------------5-5-5--2-2-2------0---|


 - Chorus:
(Quanto tempo faz?...)
G|---------------------------------7-------------|
D|-------------------------4---------------------|
A|-5---5h7---4424424----------55055---7707-------|
E|--------------------22022----------------------|

(Que me da tudo que eu preciso...)
G|---------------------------------------------------------------------|
D|-----------------------------------------------------------------6---|
A|-------------------97979797-797979--5050505-050505-------------------|
E|-97979797-79797979---------------------------------0-0-0-0-0-0-4-----|


 - Intro:
G|-----------------------------------------------------|
D|-----14-12-11-------14h16-----4---754--------679-----|
A|-0-0----------12-12---------5---5-----5h7--7-----7-0-|
E|-----------------------------------------------------|

G|---------------------------------------------------|
D|-----14-12-11-------14h16--------------------------|
A|-0-0----------12-12---------5-5457542--------------|
E|--------------------------------------2------------|

G|-----------------------------------------------------|
D|-----14-12-11-------14h16-----4---754--------679-----|
A|-0-0----------12-12---------5---5-----5h7--7-----7-0-|
E|-----------------------------------------------------|

G|---------------------------------------------------|
D|-----14-12-11-------14h16--------------------------|
A|-0-0----------12-12---------5-5457-7-5-4-2-0-------|
E|---------------------------------------------------|

G|----------------------------------------------|
D|----------------------------------------------|
A|-0--7-5-4-------------------------------------|
E|----------5--0-5------------------------------|
Добавлено: 30.06.2015
Вам также может быть интересно:
Другие материалы по этой песне:
  • Аккорды и текст

Страница создана 30.06.2015
http://primanota.ru/scracho/divina-comedia-chords.htm
Привет, Гость.
Предлагаем пройти революционный курс по гитаре.
Подарок от PrimaNota.Ru, забирай!