PrimaNota.ru - самый крупный в мире бесплатный архив песенных текстов, аккордов, табулатур и нот


Scouting For Girls - 11 - текст песни, бас-таба, видео

Регистрация Запомнить меня
Войти через:  Facebook Google Twitter Vk Yandex Mail.ru

Scouting For Girls - 11 - текст песни, бас-таба, видео

Печатать
Просмотров: 98
Уроки эстрадного вокала в Санкт-Петербурге
Авторы музыки: Roy Stride
Авторы текста: Roy Stride
  Intro
G|----------------------------|
D|----------------------------|
A|--5-55-55-2-22-22-----------|
E|------------------5-55-55-3-|
  Chorus
G|------------------------------------------|
D|------------------------------------------|
A|--5-55-55-2-22-22/12-1212-1212-10-1010-10-|   X2
E|------------------------------------------|
  Verse                                      On the 4th time
G|------------------------------------------|--------------------------|
D|------------------------------------------|--------------------------|
A|-5-55-55-2-22-22--------------------------|-5-55-55-2-22-22----------|        X4
E|-----------------5-55-55-3-33-33----------|-----------------5-55-55-3|
  Chorus
G|-------------------------------------------|
D|-------------------------------------------|
A|-5-55-55-2-22-22/12-1212-1212-10-1010-1010-| X4
E|-------------------------------------------|
  “Is used to be just me”
G|---------------------------------------------------------------|
D|---------------------------------------------------------------|
A|-10~~~~~----12~~~~~--------5-55-55-5-55-55-5-55-55-5-----------|
E|---------------------------------------------------------------|
  Verse                                      On the 4th time
G|------------------------------------------|--------------------------|
D|------------------------------------------|--------------------------|
A|-5-55-55-2-22-22--------------------------|-5-55-55-2-22-22----------|        X4
E|-----------------5-55-55-3-33-33----------|-----------------5-55-55-3|
  Chorus
G|-------------------------------------------|
D|-------------------------------------------|
A|-5-55-55-2-22-22/12-1212-1212-10-1010-1010-| X4
E|-------------------------------------------|
  “Is used to be just me”
G|---------------------------------------------------------------|
D|---------------------------------------------------------------|
A|-10~~~~~---12~~~~~-----(5-55-55-2-22-22/12-1212-1212-X2)-------|
E|---------------------------------------------------------------|
  Solo
G|---------------------------------------------------------------|
D|---------------------------------------------------------------|
A|-10-10-10-10-10-1010-1010/12-12-12-12-12-1212-1212-------------| X2
E|---------------------------------------------------------------|
  Bridge                                        On the 5th time
G|------------------------------------------|--------------------------|
D|------------------------------------------|--------------------------|
A|-5-55-55-2-22-22--------------------------|-5-55-55-2-22-22----------| X5     
E|-----------------5-55-55-3-33-33----------|-----------------5-55-55-3|

  Chorus
G|-------------------------------------------|
D|-------------------------------------------|
A|-5-55-55-2-22-22/12-1212-1212-10-1010-1010-| X8
E|-------------------------------------------|  
  Ending
G|---------------------------------------------------------------|
D|---------------------------------------------------------------|
A|-10~~~~~---12~~~~~---------5-55-55-5-55-55-5-55-55-5-----------|
E|---------------------------------------------------------------|
Добавлено: 22.09.2013
Другие материалы по этой песне:
  • Аккорды и текст

Страница создана 24.08.2013
http://primanota.ru/scouting-for-girls/11-chords.htm
Привет, Гость.
Предлагаем пройти революционный курс по гитаре.
Подарок от PrimaNota.Ru, забирай!