PrimaNota.ru - самый крупный в мире бесплатный архив песенных текстов, аккордов, табулатур и нот


Scout Niblett - Where Are You - таба, видео

Регистрация Запомнить меня
Войти через:  Facebook Google Twitter Vk Yandex Mail.ru

Scout Niblett - Where Are You - таба, видео

Печатать
Просмотров: 126
Artist: Scout Niblett
Album: Kidnapped by Neptune
Song: Where Are You?

Tab typed by: Xander van Trigt (xandyxandicus@hotmail.com)

standard tuning       *lyrics are most likely not correct*

e ---------------------------|
B ---------------------------|
G ---------------------------|  x4
D -6---------------8-b-^-----|
A -7-------------------------|
E -0-------------------------|
   1(1)1 2(1)1 2 3 12345678    < accentuate the underlined when strumming

   E ------------------------------|
   B ------------------------------|
   G -----------------7-7\5-5-5----|  x8 with the below following lyrics:
   D -6---------------7-7\5-5-5----|
   A -7---------------5-5\3-3-3----|
   E -0-------------------------0--|
      1(1)1 2(1)1 2 3 D DU  D D U

      |               |
Sweet lifer         I tremble but my coarse does not
      my self      is mixin' in with their sound
   We make sense   if you through one another
Sweet lifer         I absolutely adored him
Sweet lifer       I'm so lookin' forward to
      comin'home your lovin' home of silence
    Until then      I make my little noise
    Until then      I make my fuckin' noooi_se

e -------------------------------------|
B -------------------------------------|  x4 (a bit slower each time)
G -------------------------------------|
D -6---------------8-b-^-----------r---| < slow release
A -7-----------------------------------|
E -0-----------------------------------|
   1(1)1 2(1)1 2 3 12345678

Guitar part 1:
e -------------------------|
B -------------------------|
G ---------9~pm-7\5-5-5----|
D -----8--------7\5-5-5----|
A --------7-----5\3-3-3-0--|
E -0--0--------------------|
                D   D D

Guitar part 2:
e ---------------------------|
B -----------9---------------|
G -----------9-9--7\5-5-5----|
D -----8------/9--7\5-5-5----|
A (7)(7)--7-------5\3-3-3-0--|
E -0--0--(0)-----------------|
   D  D   U  U D  D   D D

Guitar part 3:
e ----------------------------------|
B ----------------------------------|
G -----------------------7\5-5-5----|
D -----------------------7\5-5-5----|
A (7)--------------------5\3-3-3-0--|
E -0-~-~-~-~-~-~-~-~-~-~------------|
                          |
   So where were you my lo_ove   tonight

-guitar part 2

-guitar part 3
“Another city where the li_ights are bright”

-guitar part 2

-guitar part 3
     “Do   what   you   wa_ant   understand?”

-guitar part 2

-guitar part 3
“Do  what  you  wa_ant  so_when you're pairs”

Repeated lyrics:
-guitar part 1

-guitar part 3
  “So where were you my lo_ove   tonight”

-guitar part 2

-guitar part 3
“Another city where the li_ights are bright”

-guitar part 1

-guitar part 3
     “Do   what   you   wa_ant   understand?”

-guitar part 2

-guitar part 3
“Do  what  you  wa_ant  so_when you're pairs”

e -----------------------------|
B -----------9-----------------|
G -----------9-9--7\5-5--------|  x2
D -----8------/9--7\5-5-----2--|
A (7)(7)--7-------5\3-3-3-2----|
E -0--0--(0)-------------------|

e ---------------------------------|
B ---------------------------------|
G ---------9~pm-7\5-5-5---9-b^rv-~-|
D -----8--------7\5-5-5---9-b^rv-~-| fade
A --------7-----5\3-3-3-0-7-b^rv-~-|
E -0--0----------------------------|
                          \slow/

Open to any corrections or comments.
Добавлено: 26.06.2012
Другие материалы по этой песне:
  • Аккорды и текст

Страница создана 26.06.2012
http://primanota.ru/scout-niblett/where-are-you-chords.htm
Привет, Гость.
Предлагаем пройти революционный курс по гитаре.
Подарок от PrimaNota.Ru, забирай!