PrimaNota.ru - самый крупный в мире бесплатный архив песенных текстов, аккордов, табулатур и нот


Scout Niblett - Pom Poms - таба, видео

Регистрация Запомнить меня
Войти через:  Facebook Google Twitter Vk Yandex Mail.ru

Scout Niblett - Pom Poms - таба, видео

Печатать
Просмотров: 88
-------------------------------------------------------------------------------
                             Pom Poms by Scout Niblett
-------------------------------------------------------------------------------
Tabbed by: Scott H.

From "Kidnapped by Neptune" (2005). This one's a little unusual in that halfway through 
the song she abandons the guitar and switches to drums only. Below I've tabbed the 
guitar portion of the song (the first half). Pretty easy. She finger picks these chords.

Tuning: EADGBE

Verse
e|-----------------------------------------------------------------------|
B|-----------------------------------------------------------------------|
G|-----------------------------------------------------------------------|
D|-x-7-x-7-x-7-x-7--x-8-x-8-x-8-x-8--x-7-x-7-x-7-x-7--x-8-x-8-x-8-x-8----|
A|-x-7-x-7-x-7-x-7--x-8-x-8-x-8-x-8--x-7-x-7-x-7-x-7--x-8-x-8-x-8-x-8----|
E|-5-5-5-5-5-5-5-5--6-6-6-6-6-6-6-6--5-5-5-5-5-5-5-5--6-6-6-6-6-6-6-6----|


Chorus
e|---------------------------------------------|
B|---------------------------------------------|
G|----------------------x-8--------------------|
D|-x-8--x-7--x-5--x-3---x-8--x-7-x-7-x-7-x-7---|
A|-x-8--x-7--x-5--x-3---6-6--x-7-x-7-x-7-x-7---|
E|-6-6--5-5--3-3--1-1--------5-5-5-5-5-5-5-5---|


Lyrics:

    Whatever you wanna say,
    You can say it to me
    Whatever you wanna be,
    You can be it
    Whoever you wanna love,
    You can love 'em
    Right now

    Does anybody know a cute girl
    With some pom poms?

    Does anybody know a cute girl
    With some pom poms?

    Everybody needs someone
    To spell out their name, yeah

    Cause everybody needs someone
    To spell out their name
    In a little song

    So please, please, please
    Just send her along
    Please, please, please
    Just send her along

    To cheer me on, cheer me up
    Cheer me on, cheer me on
    To cheer me on, cheer me up
    Cheer me on, cheer me on
    In a little song
Добавлено: 13.08.2013
Другие материалы по этой песне:
  • Аккорды и текст

Страница создана 13.08.2013
http://primanota.ru/scout-niblett/pom-poms-chords.htm
Привет, Гость.
Предлагаем пройти революционный курс по гитаре.
Подарок от PrimaNota.Ru, забирай!