PrimaNota.ru - самый крупный в мире бесплатный архив песенных текстов, аккордов, табулатур и нот


Scout Niblett - Nevada - аккорды и текст, видео

Регистрация Запомнить меня
Войти через:  Facebook Google Twitter Vk Yandex Mail.ru

Scout Niblett - Nevada - аккорды и текст, видео

Печатать
Просмотров: 91
Nevada
Scout Niblett
-------------------------------------------------------------------------------
                             Nevada by Scout Niblett
-------------------------------------------------------------------------------
Tabbed by: Scott H.

From "This Fool Can Die Now" (2007). When playing the E chord during the chorus and 
verses, alternate between strumming and pull offs, same as how she plays the chord during 
the intro, and end with bending the strings.

Tuning: EADGBE

Intro:

e|----------------------------------------------------|
B|----------------------------------------------------|
G|-------2----------0h2-0---------2-------0h2-0-------|
D|-0h2------0h2------------0h2-------0h2--------------|
A|-----0---------0--------------0---------------------|
E|----------------------------------------------------|

(Repeat x 8)


Then, play


   E        E     E       E        E     E

e|----------------------------------------------------|
B|----------------------------------------------------|
G|-1--------1--0--1b------1--------1--0--1b-----------|
D|-2-----0--2--0--2b------2-----0--2--0--2b-----------|
A|-2-----0--2--0--2b------2-----0--2--0--2b-----------|
E|-0-----0--0--0--0-------0-----0--0--0--0------------|

(Repeat x 3)

                                          B5   G5   F#5    
Am   E

Put on that suit and lend me that costume

                                   B5   G5   F#5    Am   E
Put on that suit and get in my car


                                              B5   G5   F#5   
 Am   E
If we set off now, we'll be there by daybreak



                                 B5   G5   F#5    Am
Fifteen hours and we'll be there


                            E
Full fire moon as our guide

                                            B5   G5   F#5    Am

I promised I would, I promised I'd take you


                        E
Here I am with my honor



                         B5   G5   F#5    Am
See you about, see you about

                      E
Oh, my love in Nevada

                         B5   G5   F#5    Am
See you about, see you about

                      E
Oh, my love in Nevada


                                            B5   G5   F#5    
Am   E

So put on that suit and lend me that costume

                                   B5   G5   F#5    Am   E
Let's come home a little different

                                   B5   G5   F#5    Am
Put on that suit and get in my car

                      E
Oh, my love in Nevada
Добавлено: 25.01.2014
Другие материалы по этой песне:
  • Аккорды и текст

Страница создана 25.01.2014
http://primanota.ru/scout-niblett/nevada-chords.htm
Привет, Гость.
Предлагаем пройти революционный курс по гитаре.
Подарок от PrimaNota.Ru, забирай!