PrimaNota.ru - самый крупный в мире бесплатный архив песенных текстов, аккордов, табулатур и нот


Scout Niblett - Hide And Seek - таба, видео

Регистрация Запомнить меня
Войти через:  Facebook Google Twitter Vk Yandex Mail.ru

Scout Niblett - Hide And Seek - таба, видео

Печатать
Просмотров: 108
Уроки эстрадного вокала в Санкт-Петербурге
-------------------------------------------------------------------------------
                             Hide and Seek by Scout Niblett
-------------------------------------------------------------------------------
Tabbed by: Scott H.

Tuning: EADGBE

Verse I

e|----8---4---3-----------------------------------------|
B|----------------------3----------4--------8-----------|
G|-------------------0----------0--------0--------------|
D|------------------------------------------------------|
A|-8---4---3--------------------------------------------|
E|----------------3----------4--------8-----------------|

    Bring on my psychic light
    Its arms will hold me tight
    Here comes that feeling again 
    Sweet heart fever
    Just keep dreaming

    The last time I saw her
    She was wearing a flower in her hair
    Chewing on the heart
    Of some lucifer
    On an on ramp to nowhere
    But there day out there in time
    That's stacked up and ready to play

    Somewhere on side day
    He'll call her his baby
    What are you saying to me
    You're so quiet
    I cannot see
    The silence that you serve
    Is the loudest thing I've heard

    On an on ramp to nowhere
    We're a landing strip for souls 
    Where ever you are
    You still reside in me

    Hi, my name is God
    I play hide and seek with myself
    I'm currently hiding in you
    I'm broken down by you

    So don't let that heart sink
    Don't even let it sigh
    Don't let that smile fade
    Don't let that sweet hair frown


Verse II
(play clean, then heavily distorted into the outro)

e|-------------------------------------------------|
B|-------------------------------------------------|
G|-------------------------------------------------|
D|-10-10-10-10--11-11-11-11--5-5-5-5-5-5-5-5-------|
A|-10-10-10-10--11-11-11-11--5-5-5-5-5-5-5-5-------|
E|--8--8--8--8---9--9--9--9--3-3-3-3-3-3-3-3-------|


    What are you saying to me?
    You're so quiet
    I cannot see
    The silence that you serve
    Is the loudest thing I've heard
Добавлено: 17.01.2014
Другие материалы по этой песне:
  • Аккорды и текст

Страница создана 17.01.2014
http://primanota.ru/scout-niblett/hide-and-seek-chords.htm
Привет, Гость.
Предлагаем пройти революционный курс по гитаре.
Подарок от PrimaNota.Ru, забирай!