PrimaNota.ru - самый крупный в мире бесплатный архив песенных текстов, аккордов, табулатур и нот


Scott Walker - Black Sheep Boy - таба, видео

Регистрация Запомнить меня
Войти через:  Facebook Google Twitter Vk Yandex Mail.ru

Scott Walker - Black Sheep Boy - таба, видео

Печатать
Просмотров: 75
Авторы музыки: Tim Hardin
Авторы текста: Tim Hardin
Song: Black Sheep Boy
Artist: As performed by Scott Walker (written by Tim Hardin)

tabbed by Matt Hunziker

Standard tuning, Capo on 1st fret
(Swing those 8th notes when appropriate!)

*Intro*
|----------------|0---------------|----0--1--0-----|--------0-------|
|------------1-3-|--0-------0-----|0-3-1--3----3---|1---1-3---1-----|
|------0---------|------0-------0-|0-------------0-|--0-------------|
|--2-0-----2-2---|----0-------0---|----0-------0---|----2-------2-0-|
|3-------3-------|----------------|----------------|3---------------|
|----------------|3-------3-------|3-------3-------|--------3-------|

*Verse*
|-------0--------|----------------|----------------|----0--1--0---0-|
|----3-----1-----|------1---3-1---|--0---------0---|0-3-1--3----3---|
|----0-------0---|--0-----------0-|------0-------0-|0-----------0---|
|--2-----------2-|----2-------2---|----0-------0---|----0-----------|
|3-------3-------|3-------3-------|----------2-----|------------2---|
|----------------|----------------|3-------3-------|3-------3-------|

|--------0-------|------------0-1-|3-------3-1-0---|----------------|
|----------1-----|----0---0-3-1-3-|0-------0-----3-|1---1-3-1-------|
|------0-------0-|--0---0-0-------|--0---0---------|--0-------0-----|
|--2-0-------2---|----0-------0---|----0-----------|----2-------2-0-|
|3-------3-------|----------------|------------2---|3-------2-------|
|----------------|3-------3-------|3-------3-------|----------------|

*Chorus*
|----------0-----|----------------|----------------|------0---------|
|----1---1-------|0---------------|------1---------|--1-------1-----|
|------2-------2-|--0----0----0---|----2---------0-|----0---------0-|
|--2---------2---|----0---------0-|--3------/3-2---|----------------|
|0-------0-------|----------2-----|----------------|3-----------2---|
|----------------|3-------3-------|1-------1-------|--------3-------|

|----------------|----------------|----------------|---------0------|
|------1-3---3---|1---1---1-----1-|0-------0-----0-|----1-3------3--|
|----0---0---0---|2---2-----0-----|--0-------------|--0-------------|
|--2-------------|------------2---|----------0h2---|----------------|
|3---------2---2-|--0---0-3-------|----------------|3-----------2---|
|----------------|----------------|3---3/7---------|--------3-------|

|0---------------|
|--3-1-----------|<<(This extra measure only after 1st and 2nd chorus)
|------0---------|
|--------3p2-0h2-|
|3---------------|
|--------3-------|

*Solo*
|8---------------|----------------|----------------|3---1-0---------|
|--8-5/3-0h1-----|----1-----------|0---0-1-3-5-----|--------3-5-3-0-|
|------------0---|--0-------0-----|0---0--------/4-|--4-------------|
|--------------2-|3-----2---------|--0---2-3-5-----|--------3-5-3-0-|
|----------------|------------3---|----------------|----------------|
|----------------|----------------|----------------|----------------|

             |V   *pull-off here is a 16th
|----------------|----------------|----------------|--------0-------|
|1-------1-3-5---|6p5-5---1-------|----0-----------|----1-3---1-----|
|--0---0-------5-|--7---5---0-----|------0-----0---|--0-----------0-|
|2-------2-3-5---|------------2---|--0-------0-----|----2-3-----2---|
|----3-----------|--------------3-|2-------2------3|----------------|
|----------------|----------------|----------------|----------------|

|----------0-----|----------------|----------------|------0---------|
|----1---1-------|0---------------|------1---------|--1-------1-----|
|------2-------2-|--0----0----0---|----2---------0-|----0---------0-|
|--2---------2---|----0---------0-|--3------/3-2---|----------------|
|0-------0-------|----------2-----|----------------|3-----------2---|
|----------------|3-------3-------|1-------1-------|--------3-------|

|----------------|----------------|----------------|---------0------|
|------1-3---3---|1---1---1-----1-|0-------0-----0-|----1-3------3--|
|----0---0---0---|2---2-----0-----|--0-------------|--0-------------|
|--2-------------|------------2---|----------0h2---|----------------|
|3---------2---2-|--0---0-3-------|----------------|3-----------2---|
|----------------|----------------|3---3/7---------|--------3-------|

|0---------------|
|--3-1-----------|
|------0---------|
|--------3p2-0h2-|
|3---------------|
|--------3-------|

*Final Chord*
|0---0~~~~~~~~~~~|
|1------1~~~~~~~~|
|0---------0-0~~~|
|2-------------2~|
|3---------------|
|----------------|


*SONG ORDER*
Intro
Verse
Chorus
Verse
Chorus
Solo
Verse
Chorus x2
Final Chord
Добавлено: 18.02.2014
Другие материалы по этой песне:
  • Аккорды и текст

Страница создана 18.02.2014
http://primanota.ru/scott-walker/black-sheep-boy-chords.htm
Привет, Гость.
Предлагаем пройти революционный курс по гитаре.
Подарок от PrimaNota.Ru, забирай!