PrimaNota.ru - самый крупный в мире бесплатный архив песенных текстов, аккордов, табулатур и нот


Scott Stapp - Hard Way - текст песни, таба, видео

Регистрация Запомнить меня
Войти через:  Facebook Google Twitter Vk Yandex Mail.ru

Scott Stapp - Hard Way - текст песни, таба, видео

Печатать
Просмотров: 147
Scott Stapp-Hard Way
tabbed by guitaristgax70..rate this tab

Standard tuning in D

Intro-Verse:
E|----------------------------------|
B|----------------------------------|
G|----------------------------------|
D|---12h14---10---7---10--10h12-----|
A|----------------------------------|
D|-0-------0----0---0---0-----------|

"Here I stand"... (With Distortion this time)
E|----------------------------------|
B|----------------------------------|
G|----------------------------------|
D|---12h14---10---7---10--10h12-----|
A|----------------------------------|
D|-0-------0----0---0---0-----------|


Chrous:
E|-------------------------------------------------|
B|-3-3-3-3-3---------------------------------------|
G|-2-2-2-2-2-----------------12-12-12-14-14-14~----|
D|-0-0-0-0-0--5-7-5-0-3-3-3------------------------|
A|-0-0-0-0-0--5-7-5-0-3-3-3--10-10-10-12-12-12~----|
D|-0-0-0-0-0--5-7-5-0-3-3-3------------------------|
           P.M- - -

VerseII:
E|----------------------------------|
B|----------------------------------|
G|----------------------------------|
D|---12h14---10---7---10--10h12-----|
A|----------------------------------|
D|-0-------0----0---0---0-----------|

"So Here I stand"... (With Distortion this time)
E|----------------------------------|
B|----------------------------------|
G|----------------------------------|
D|---12h14---10---7---10--10h12-----|
A|----------------------------------|
D|-0-------0----0---0---0-----------|

Chrous:
E|-------------------------------------------------|
B|-3-3-3-3-3---------------------------------------|
G|-2-2-2-2-2-----------------12-12-12-14-14-14~----|
D|-0-0-0-0-0--5-7-5-0-3-3-3------------------------|
A|-0-0-0-0-0--5-7-5-0-3-3-3--10-10-10-12-12-12~----|
D|-0-0-0-0-0--5-7-5-0-3-3-3------------------------|
           P.M- - -

Bridge:                a few times .....then this        
E|--------------|----------------------|-----------------------------|
B|-3-3-3--3-3-3-|----------------------|-----------------------------|
G|-2-2-2--2-2-2-|-14/12---10/12/10~----|-14/12---12/10--10-9/10/9-5--|
D|-0-0-0--0-0-0-|-------0--------------|-------0------0--------------|
A|-0-0-0--0-0-0-|-12/10-0-8/10/-8~-----|-12/10-0-10/8-0-8--7/8/-7-3--|
D|-0-0-0--0-0-0-|-------0--------------|-------0------0--------------|
P.M- - -  - - -  

Chrous:
E|-------------------------------------------------|
B|-3-3-3-3-3---------------------------------------|
G|-2-2-2-2-2-----------------12-12-12-14-14-14~----|
D|-0-0-0-0-0--5-7-5-0-3-3-3------------------------|
A|-0-0-0-0-0--5-7-5-0-3-3-3--10-10-10-12-12-12~----|
D|-0-0-0-0-0--5-7-5-0-3-3-3------------------------|
           P.M- - -  

Outro:                   
E|--------------|----------------------|
B|-3-3-3--3-3-3-|----------------------|
G|-2-2-2--2-2-2-|-14/12---10/12/10~----|
D|-0-0-0--0-0-0-|-------0--------------|
A|-0-0-0--0-0-0-|-12/10-0-8/10/-8~-----|
D|-0-0-0--0-0-0-|-------0--------------|
P.M- - -  - - -  
Добавлено: 30.07.2012
Другие материалы по этой песне:
  • Аккорды и текст

Страница создана 16.04.2012
http://primanota.ru/scott-stapp/hard-way-chords.htm
Привет, Гость.
Предлагаем пройти революционный курс по гитаре.
Подарок от PrimaNota.Ru, забирай!